Guitar Tabs, Chords and Lyrics


Her Brand New Skin   Everclear



Her Brand New Skin
As recorded by Everclear on "Sparkle And Fade"
Tabbed by CoMa (coma316@tripod.com) and Joesph (GRW0849@cs.com) 

VERSION 1 - Tabbed by CoMa aka CJ Minyard

Intro:
e|--------------------------|
B|--------------------------|
G|-4-4-4-4-4-4-4-4-2--------|
D|-5-5-5-5-5-5-5-5-3--------|
A|-5-5-5-5-5-5-5-5-3--------|
E|-3-3-3-3-3-3-3-3-1--------|
 

Verse:

e|-1-1-1-1-1-1-1-1-3-3-3-3-3-3-3-3--|
B|-1-1-1-1-3-3-3-3-3-3-3-3-5-5-5-5--|
G|-2-2-2-2-3-3-3-3-4-4-4-4-5-5-5-5--|
D|-3-3-3-3-3-3-3-3-5-5-5-5-5-5-5-5--|
A|-3-3-3-3-1-1-1-1-5-5-5-5-3-3-3-3--|
E|-1-1-1-1---------3-3-3-3----------|
 
2nd guitar strums an F chord every now and then
Chorus:
e|-------------------------------------|
B|-------------------------------------|
G|-7-7-7-7---------------------9-10-9--|
D|-7-7-7-7-8-8-8-8--10----10---9-10-9--|
A|-5-5-5-5-8-8-8-8--10----10---7-8--7--|
E|---------6-6-6-6--8-----8------------|
 
End on an F

Outro:
e|------------------------|
B|------------------------|
G|-------------------5-5--|
D|-3-3-3-3-2-3--3-3--5-5--|
A|-3-3-3-3-2-3--3-3--3-3--|
E|-1-1-1-1-0-1--1-1-------|
VERSION 2 - Tabbed by Joesph

Chords Used:
G:355433
F:133211
Bb:x1333x
C:x3555x
F type 2:13xxxx
Bb type 2: x13xxx
G type 2: 35xxxx
C type 2:x35xxx
D: 55777x
F type 3:1332xx

Intro: G G G G G G G \ F

Verse: (Acoustic): F F F F Bb Bb Bb Bb G G G G C C C C

(Electric)(Comes in Later) F type 2 (4x) Bb type 2 (4x) G type 2 (4x) C type 
2 (4x)

Chorus : D (4x) Bb (4x) F type 3 (4x) C (4x)

Thats All I Know

                                                    -Joseph

JASON'S EVERCLEAR TABS - http://members.tripod.com/~panec/


Important: The song above is NOT stored on the Chordie server. The original song is hosted at www.xguitar.com. Chordie works as a search engine and provides on-the-fly formatting. Chordie does not index songs against artists'/composers' will. To remove this song please click here.

This song is displayed as text-only. Transposing and tuning is only available for chordpro-songs.

Login - add to songbook

Rating click stars to rate

Layout
Accuracy

SHARE PAGE  




You need to log in to post comments