Guitar Tabs, Chords and Lyrics


Blondes   Everclear



Author/Artist: Everclear
Title: Blondes
Album: I-5 killers
Transcribed by: Wes Dolezal
Email: Laminate_Man@yahoo.com
Web: www.geocities.com/SunsetStrip/Diner/8868/main.html  (sign the guestbook)

-|-------------|-------------------------------|------------------------------
-|-------------|-------------------------------|------------------------------
-|-------------|-------------------------------|------------------------------
-|-11-11-11----|--11-11-10--9----11-11-10--9---|------------------------------
-|-11-11-11----|--11-11-10--9----11-11-10--9---|------------------------------
-|--0--9--0----|---0--9--8--7-----0--9--8--7---|------------------------------
1.) intro      2.) G.2 comes in

-|--------------------------|---------------|---------------------------------
-|--------------------------|---------------|---------------------------------
-|--------------------------|---------------|---------------------------------
-|-11-11-11---11---11-10--9-|11-11-10--9----|---------------------------------
-|-11-11-11-x-11-x-11-10--9-|11-11-10--9----|---------------------------------
-|--0--9--9-x--9-x--9--8--7-|-0--9--8--7----|---------------------------------
3.) main riff              (variation)

-|------------------|-----5--------4--------5--------5-------|----------------
-|------------------|-------5--------4--------5--------5-----|----------------
-|-4--5--4--5-------|---6-----6--5-----5--6-----6--4-----4---|----------------
-|-7--6--7--6-------|----------------------------------------|----------------
-|-7--6--7--6-------|----------------------------------------|----------------
-|-5--4--5--4-------|----------------------------------------|----------------
Chorus 1              fill 1.

-|------9------11------12-----|-----------------------------------------------
-|--------9-------9-----------|-----------------------------------------------
-|--/10-----10------10--------|-----------------------------------------------
-|----------------------------|-----------------------------------------------
-|----------------------------|-----------------------------------------------
-|----------------------------|-----------------------------------------------
lead fill (close as I can get)

-|-------------------------------------------------|--------------------------
-|-------------------------------------------------|--------------------------
-|-------------------------------------------------|--------------------------
-|-7-7-7--6-6-6--7-7-7--2-2-2--7-7-7--6-6-6-111111-|--------------------------
-|-7-7-7--6-6-6--7-7-7--2-2-2--7-7-7--6-6-6-111111-|--------------------------
-|-5-5-5--4-4-4--5-5-5--0-0-0--5-5-5--4-4-4--9-9-9-|--------------------------
chorus 2.

-|--5-----4-----5-----0--------5------4-----9---11---9--|---------------------
-|---5-----4-----5-----0--------5------4-----9----9-----|---------------------
-|-6--6--5--5--6--6-\1--1-----6--6---5---5----10---10---|---------------------
-|------------------------------------------------------|---------------------
-|------------------------------------------------------|---------------------
-|------------------------------------------------------|---------------------
fill 2

-|------------------------------|---------------------------------------------
-|------------------------------|---------------------------------------------
-|---------10-10-10-10----------|---------------------------------------------
-|-x-x-x-x-11-11-11-11-x-x-x-x--|---------------------------------------------
-|-x-x-x-x-11-11-11-11-x-x-x-x--|---------------------------------------------
-|------------------------------|---------------------------------------------
fill 3 (repeat)

-|--------------------------------------------------------------------|-------
-|-------------------------------------------------------------9-12b--|-------
-|--9h11b12-11-9----11b12--11-11-11-11-11-11-11-11-11-11---9-9--------|-------
-|---------------11---------------------------------------------------|-------
-|--------------------------------------------------------------------|-------
-|--------------------------------------------------------------------|-------
solo (or as close as I could get.)

-|----------------12-12-12-12-12--------------------------------------|-------
-|-12-12-12-12-12----------------12p9----12---------------------------|-------
-|-11-11-11-11-11---------------------11-11---------------------------|-------
-|--------------------------------------------------------------------|-------
-|--------------------------------------------------------------------|-------
-|--------------------------------------------------------------------|-------


Important: The song above is NOT stored on the Chordie server. The original song is hosted at www.xguitar.com. Chordie works as a search engine and provides on-the-fly formatting. Chordie does not index songs against artists'/composers' will. To remove this song please click here.

This song is displayed as text-only. Transposing and tuning is only available for chordpro-songs.

Login - add to songbook

Rating click stars to rate

Layout
Accuracy

SHARE PAGE  




You need to log in to post comments