Guitar Tabs, Chords and Lyrics


Detroit  Everclear

e|----------------------------------------------------|


B|----------------------------------------------------|


G|-5-7-4---5-5-7-7-7-4----5-5-7-7-7-4----5-5-7-7-7-4--|

D|-5-7-4---5-5-7-7-7-4----5-5-7-7-7-4----5-5-7-7-7-4--|
A|-5-7-5---5-5-5-5-7-5----5-5-5-5-7-5----5-5-5-5-7-5--|
E|----------------------------------------------------|
e|----------------------------------------------------|
B|----------------------------------------------------|
G|-----4b------------4b-------------4b-------------4b-|
D|----------------------------------------------------|
A|----------------------------------------------------|
E|----------------------------------------------------|
e|----------------------------------------------------|
B|----------------------------------------------------|
G|----------------------------\\-\\-7-4----5-5-7-7-7-4--|
D|----------------------------\\-\\-7-4----5-5-7-7-7-4--|
A|----------------------------\\-\\-7-5----5-5-5-5-7-5--|
E|----------------------------------------------------|
e|-----------------------------------------------| x10
B|-----------------------------------------------|
G|----------------4b------------------4b---------|
D|-5-5--7-7---2--------5-5--7-7---2--------------|
A|-5-5--7-7---2--------5-5--7-7---2--------------|
E|-----------------------------------------------|
    [C]      [B]      [E]      [D]      [C]      [B]                                      
e|-----------------------------------------------|
B|-----------------------------------------------|
G|--5-----4-----9-----7-----5-----4--------------|
D|--5-----4-----9-----7-----5-----4--------------|
A|--3-----2-----7-----5-----3-----2--------------|
E|-----------------------------------------------|

I close my eyes and I can see her waiting

e|-----------------------------------------------| x10
B|-----------------------------------------------|
G|----------------4b------------------4b---------|
D|-5-5--7-7---2--------5-5--7-7---2--------------|
A|-5-5--7-7---2--------5-5--7-7---2--------------|
E|-----------------------------------------------|

(no lyrics first two times)
I am pleading for a Michigan dream girl
Shocking face and heavy as hell
I am pleading for a Michigan girl
See her come around
Big lie wrapped inside her little glove
Big lie wrapped inside her little glove
Big lie, Big lie
Big lie wrapped inside her little glove

    [C]      [B]      [E]      [D]      [C]      [B]      [E]                                
e|-----------------------------------------------|
B|-----------------------------------------------|
G|--5-----4-----9-----7-----5-----4-----9-9-9-9--|
D|--5-----4-----9-----7-----5-----4-----9-9-9-9--|
A|--3-----2-----7-----5-----3-----2-----7-7-7-7--|
E|-----------------------------------------------|

I close my eyes and I can see her waiting patient for me

    [C]      [B]      [E]      [D]      [C]      [B]      [E]                                
e|-----------------------------------------------|
B|-----------------------------------------------|
G|--5-----4-----9-----7-----5-----4--------------|
D|--5-----4-----9-----7-----5-----4-----2-2-2-2--|
A|--3-----2-----7-----5-----3-----2-----2-2-2-2--|
E|--------------------------------------0-0-0-0--|

pm.......
I cover my ears, I clear my mind, She starts to fade

    [E]                                                                    
e|--------------------------|
B|--------------------------|
G|--------------------------|
D|--2--2--2--2--2--2--2--2--|
A|--2--2--2--2--2--2--2--2--|
E|--0--0--0--0--0--0--0--0--|

pm........................
She starts to fade

    [E]                        [G#]            [A]                               
e|--------------------------------------------------|
B|--------------------------------------------------|
G|--------------------------------------------------|
D|--2--2--2--2--2--2--2--2--6--6--6--6--7--7--7--7--|
A|--2--2--2--2--2--2--2--2--6--6--6--6--7--7--7--7--|
E|--0--0--0--0--0--0--0--0--4--4--4--4--5--5--5--5--|

pm...............................................
She starts to fade

    [C]                                                                   
e|--------------------------------------------------|
B|--------------------------------------------------|
G|--5--5--5--5--5--5--5--5--5--5--5--5--5--5--5--5--|
D|--5--5--5--5--5--5--5--5--5--5--5--5--5--5--5--5--|
A|--3--3--3--3--3--3--3--3--3--3--3--3--3--3--3--3--|
E|--------------------------------------------------|

pm...............................................
She's starting to fade

    [E]                        [G#]            [A]                               
e|--------------------------------------------------|
B|--------------------------------------------------|
G|--------------------------------------------------|
D|--2--2--2--2--2--2--2--2--6--6--6--6--7--7--7--7--|
A|--2--2--2--2--2--2--2--2--6--6--6--6--7--7--7--7--|
E|--0--0--0--0--0--0--0--0--4--4--4--4--5--5--5--5--|

|pm............................................... |
| |
e|--------------------------------------------------|
B|--9--9--11b---9--9--11b---9--9--11b---9--9--11b---|
G|--------------------------------------------------|
D|--------------------------------------------------|
A|--------------------------------------------------|
E|--------------------------------------------------|

She's starting to fade...

    [C]                                                                   
e|--------------------------------------------------|
B|--------------------------------------------------|
G|--5--5--5--5--5--5--5--5--5--5--5--5--5--5--5--5--|
D|--5--5--5--5--5--5--5--5--5--5--5--5--5--5--5--5--|
A|--3--3--3--3--3--3--3--3--3--3--3--3--3--3--3--3--|
E|--------------------------------------------------|

|pm............................................... |
| |
e|--------------------------------------------------|
B|--9--9--11b---9--9--11b---9--9--11b---9--9--11b---|
G|--------------------------------------------------|
D|--------------------------------------------------|
A|--------------------------------------------------|
E|--------------------------------------------------|

She starts to fade

    [E]                        [G#]            [A]                               
e|--------------------------------------------------|
B|--------------------------------------------------|
G|--------------------------------------------------|
D|--2--2--2--2--2--2--2--2--6--6--6--6--7--7--7--7--|
A|--2--2--2--2--2--2--2--2--6--6--6--6--7--7--7--7--|
E|--0--0--0--0--0--0--0--0--4--4--4--4--5--5--5--5--|

|pm............................................... |
| |
e|--------------------------------------------------|
B|--9--9--11b---9--9--11b---9--9--11b---9--9--11b---|
G|--------------------------------------------------|
D|--------------------------------------------------|
A|--------------------------------------------------|
E|--------------------------------------------------|

(I am dreaming of a Michigan Girlfriend) She starts to fade

    [C]                                                                   
e|--------------------------------------------------|
B|--------------------------------------------------|
G|--5--5--5--5--5--5--5--5--5--5--5--5--5--5--5--5--|
D|--5--5--5--5--5--5--5--5--5--5--5--5--5--5--5--5--|
A|--3--3--3--3--3--3--3--3--3--3--3--3--3--3--3--3--|
E|--------------------------------------------------|

|pm............................................... |
| |
e|--------------------------------------------------|
B|--9--9--11b---9--9--11b---9--9--11b---9--9--11b---|
G|--------------------------------------------------|
D|--------------------------------------------------|
A|--------------------------------------------------|
E|--------------------------------------------------|

(I am dreaming of a Michigan Girlfriend) She starts to fade

    [E]                        [G#]            [A]                               
e|--------------------------------------------------|
B|--------------------------------------------------|
G|--------------------------------------------------|
D|--2--2--2--2--2--2--2--2--6--6--6--6--7--7--7--7--|
A|--2--2--2--2--2--2--2--2--6--6--6--6--7--7--7--7--|
E|--0--0--0--0--0--0--0--0--4--4--4--4--5--5--5--5--|

|pm............................................... |
| |
e|--------------------------------------------------|
B|--9--9--11b---9--9--11b---9--9--11b---9--9--11b---|
G|--------------------------------------------------|
D|--------------------------------------------------|
A|--------------------------------------------------|
E|--------------------------------------------------|

(I am dreaming of a Michigan Girlfriend) She starts to fade

    [C]                                                                   
e|--------------------------------------------------|
B|--------------------------------------------------|
G|--5--5--5--5--5--5--5--5--5--5--5--5--5--5--5--5--|
D|--5--5--5--5--5--5--5--5--5--5--5--5--5--5--5--5--|
A|--3--3--3--3--3--3--3--3--3--3--3--3--3--3--3--3--|
E|--------------------------------------------------|

|pm..................... . . . . |
| |
e|--------------------------------------------------|
B|--9--9--11b---9--9--11b---9--9--11b---9--9--11b---|
G|--------------------------------------------------|
D|--------------------------------------------------|
A|--------------------------------------------------|
E|--------------------------------------------------|

(I am dreaming of a Michigan Girlfriend) She's starting to fade

    [E]                        [G#]            [A]                               
e|--------------------------------------------------|
B|--------------------------------------------------|
G|--------------------------------------------------|
D|--2--2--2--2--2--2--2--2--6--6--6--6--7--7--7--7--|
A|--2--2--2--2--2--2--2--2--6--6--6--6--7--7--7--7--|
E|--0--0--0--0--0--0--0--0--4--4--4--4--5--5--5--5--|

| |
e|--------------------------------------------------|
B|--9--9--11b---9--9--11b---9--9--11b---9--9--11b---|
G|--------------------------------------------------|
D|--------------------------------------------------|
A|--------------------------------------------------|
E|--------------------------------------------------|

(I am dreaming of a Michigan Girlfriend) She starts to fade

    [C]                                                                   
e|--------------------------------------------------|
B|--------------------------------------------------|
G|--5--5--5--5--5--5--5--5--5--5--5--5--5--5--5--5--|
D|--5--5--5--5--5--5--5--5--5--5--5--5--5--5--5--5--|
A|--3--3--3--3--3--3--3--3--3--3--3--3--3--3--3--3--|
E|--------------------------------------------------|

| |
e|--------------------------------------------------|
B|--9--9--11b---9--9--11b---9--9--11b---9--9--11b---|
G|--------------------------------------------------|
D|--------------------------------------------------|
A|--------------------------------------------------|
E|--------------------------------------------------|

(I am dreaming of a Michigan Girlfriend) She's starting to fade

    [E]                        [G#]            [A]                               
e|--------------------------------------------------|
B|--------------------------------------------------|
G|--------------------------------------------------|
D|--2--2--2--2--2--2--2--2--6--6--6--6--7--7--7--7--|
A|--2--2--2--2--2--2--2--2--6--6--6--6--7--7--7--7--|
E|--0--0--0--0--0--0--0--0--4--4--4--4--5--5--5--5--|

| |
e|--------------------------------------------------|
B|--9--9--11b---9--9--11b---9--9--11b---9--9--11b---|
G|--------------------------------------------------|
D|--------------------------------------------------|
A|--------------------------------------------------|
E|--------------------------------------------------|

(I am dreaming of a Michigan Girlfriend) She's starting to fade

    [C]                                                                   
e|--------------------------------------------------|
B|--------------------------------------------------|
G|--5--5--5--5--5--5--5--5--5--5--5--5--5--5--5--5--|
D|--5--5--5--5--5--5--5--5--5--5--5--5--5--5--5--5--|
A|--3--3--3--3--3--3--3--3--3--3--3--3--3--3--3--3--|
E|--------------------------------------------------|

| |
e|--------------------------------------------------|
B|--9--9--11b---9--9--11b---9--9--11b---9--9--11b---|
G|--------------------------------------------------|
D|--------------------------------------------------|
A|--------------------------------------------------|
E|--------------------------------------------------|

(I am dreaming of a Michigan Girlfriend) She's starting to fade

    [E]                        [G#]            [A]                               
e|--------------------------------------------------|
B|--------------------------------------------------|
G|--------------------------------------------------|
D|--2--2--2--2--2--2--2--2--6--6--6--6--7--7--7--7--|
A|--2--2--2--2--2--2--2--2--6--6--6--6--7--7--7--7--|
E|--0--0--0--0--0--0--0--0--4--4--4--4--5--5--5--5--|

| |
e|--0--0--0--0--0--0--0--0--0--0--0--0--0--0--0--0--|
B|--5--5--5--5--5--5--5--5--5--5--5--5--5--5--5--5--|
G|--------------------------------------------------|
D|--------------------------------------------------|
A|--------------------------------------------------|
E|--------------------------------------------------|

(I am dreaming of a Michigan Girlfriend)

    [C]                                                                   
e|--------------------------------------------------|
B|--------------------------------------------------|
G|--5--5--5--5--5--5--5--5--5--5--5--5--5--5--5--5--|
D|--5--5--5--5--5--5--5--5--5--5--5--5--5--5--5--5--|
A|--3--3--3--3--3--3--3--3--3--3--3--3--3--3--3--3--|
E|--------------------------------------------------|

| |
e|--0--0--0--0--0--0--0--0--0--0--0--0--0--0--0--0--|
B|--8--8--8--8--8--8--8--8--8--8--8--8--8--8--8--8--|
G|--------------------------------------------------|
D|--------------------------------------------------|
A|--------------------------------------------------|
E|--------------------------------------------------|

(I am dreaming of a Michigan Girlfriend)

    [E]                        [G#]            [A]                               
e|--------------------------------------------------|
B|--------------------------------------------------|
G|--------------------------------------------------|
D|--2--2--2--2--2--2--2--2--6--6--6--6--7--7--7--7--|
A|--2--2--2--2--2--2--2--2--6--6--6--6--7--7--7--7--|
E|--0--0--0--0--0--0--0--0--4--4--4--4--5--5--5--5--|

| |
e|--0--0--0--0--0--0--0--0--0--0--0--0--0--0--0--0--|
B|--12-12-12-12-12-12-12-12-12-12-12-12-12-12-12-12-|
G|--------------------------------------------------|
D|--------------------------------------------------|
A|--------------------------------------------------|
E|--------------------------------------------------|

(I am dreaming of a Michigan Girl)

    [C]                                                                   
e|--------------------------------------------------|
B|--------------------------------------------------|
G|--5--5--5--5--5--5--5--5--5--5--5--5--5--5--5--5--|
D|--5--5--5--5--5--5--5--5--5--5--5--5--5--5--5--5--|
A|--3--3--3--3--3--3--3--3--3--3--3--3--3--3--3--3--|
E|--------------------------------------------------|

| |
e|--0--0--0--0--0--0--0--0--0--0--0--0--0--0--0--0--|
B|--15-15-15-15-15-15-15-15-15-15-15-15-15-15-15-15-|
G|--------------------------------------------------|
D|--------------------------------------------------|
A|--------------------------------------------------|
E|--------------------------------------------------|

(I am dreaming of a Michigan Girl)

    [E]                        [G#]            [A]                               
e|--------------------------------------------------|
B|--------------------------------------------------|
G|--------------------------------------------------|
D|--2--2--2--2--2--2--2--2--6--6--6--6--7--7--7--7--|
A|--2--2--2--2--2--2--2--2--6--6--6--6--7--7--7--7--|
E|--0--0--0--0--0--0--0--0--4--4--4--4--5--5--5--5--|

| |
e|--0--0--0--0--0--0--0--0--0--0--0--0--0--0--0--0--|
B|--5--5--5--5--5--5--5--5--5--5--5--5--5--5--5--5--|
G|--------------------------------------------------|
D|--------------------------------------------------|
A|--------------------------------------------------|
E|--------------------------------------------------|


    [C]                                                                   
e|--------------------------------------------------|
B|--------------------------------------------------|
G|--5--5--5--5--5--5--5--5--5--5--5--5--5--5--5--5--|
D|--5--5--5--5--5--5--5--5--5--5--5--5--5--5--5--5--|
A|--3--3--3--3--3--3--3--3--3--3--3--3--3--3--3--3--|
E|--------------------------------------------------|

| |
e|--0--0--0--0--0--0--0--0--0--0--0--0--0--0--0--0--|
B|--8--8--8--8--8--8--8--8--8--8--8--8--8--8--8--8--|
G|--------------------------------------------------|
D|--------------------------------------------------|
A|--------------------------------------------------|
E|--------------------------------------------------|


    [E]                        [G#]            [A]                               
e|--------------------------------------------------|
B|--------------------------------------------------|
G|--------------------------------------------------|
D|--2--2--2--2--2--2--2--2--6--6--6--6--7--7--7--7--|
A|--2--2--2--2--2--2--2--2--6--6--6--6--7--7--7--7--|
E|--0--0--0--0--0--0--0--0--4--4--4--4--5--5--5--5--|

| |
e|--0--0--0--0--0--0--0--0--0--0--0--0--0--0--0--0--|
B|--12-12-12-12-12-12-12-12-12-12-12-12-12-12-12-12-|
G|--------------------------------------------------|
D|--------------------------------------------------|
A|--------------------------------------------------|
E|--------------------------------------------------|


    [C]                                                                   
e|--------------------------------------------------|
B|--------------------------------------------------|
G|--5--5--5--5--5--5--5--5--5--5--5--5--5--5--5--5--|
D|--5--5--5--5--5--5--5--5--5--5--5--5--5--5--5--5--|
A|--3--3--3--3--3--3--3--3--3--3--3--3--3--3--3--3--|
E|--------------------------------------------------|

| |
e|--0--0--0--0--0--0--0--0--0--0--0--0--0--0--0--0--|
B|--15-15-15-15-15-15-15-15-15-15-15-15-15-15-15-15-|
G|--------------------------------------------------|
D|--------------------------------------------------|
A|--------------------------------------------------|
E|--------------------------------------------------|

| |
e|--------------------------------------------------|
B|--------------------------------------------------|
G|---------------------------------/15b-------------|
D|--------------------------------------------------|
A|--------------------------------------------------|
E|--------------------------------------------------|
e|-----------------------------------------------|
B|-----------------------------------------------|
G|----------------4b------------------4b---------|
D|-5-5--7-7---2--------5-5--7-7---2--------------|
A|-5-5--7-7---2--------5-5--7-7---2--------------|
E|-----------------------------------------------|

| |
e|-----------------------------------------------|
B|-----------------------------------------------|
G|-15b-----------------15-14-12----12------------|
D|------------------------------14---------------|
A|-----------------------------------------------|
E|-----------------------------------------------|
e|-----------------------------------------------|
B|-----------------------------------------------|
G|----------------4b------------------4b---------|
D|-5-5--7-7---2--------5-5--7-7---2--------------|
A|-5-5--7-7---2--------5-5--7-7---2--------------|
E|-----------------------------------------------|

| |
e|-15-15-15-15-----------------------------------|
B|-15-15-15-15-----------------------------------|
G|-----------------------------------------------|
D|--------------14-12----------------------------|
A|-----------------------------------------------|
E|-----------------------------------------------|
e|-----------------------------------------------|
B|-----------------------------------------------|
G|----------------4b------------------4b---------|
D|-5-5--7-7---2--------5-5--7-7---2--------------|
A|-5-5--7-7---2--------5-5--7-7---2--------------|
E|-----------------------------------------------|

| |
e|-----------------------------------------------|
B|----12-------15-15-15-15-15-15-14--------------|
G|----12-----------------------------------------|
D|-----------------------------------------------|
A|-----------------------------------------------|
E|-----------------------------------------------|
e|-----------------------------------------------|
B|-----------------------------------------------|
G|----------------4b------------------4b---------|
D|-5-5--7-7---2--------5-5--7-7---2--------------|
A|-5-5--7-7---2--------5-5--7-7---2--------------|
E|-----------------------------------------------|

| |
e|----------------------------15b17r-------------|
B|-----------------------------------------------|
G|-12----12-14-15p14h15p14h15--------------------|
D|----14-----------------------------------------|
A|-----------------------------------------------|
E|-----------------------------------------------|


    [C]      [B]      [E]      [D]      [C]      [B]      [E]                               
e|--------------------------------------------------|
B|--------------------------------------------------|
G|--5--5--4--4--9--9--7--7--5--5--4--4--9--9--9--9--|
D|--5--5--4--4--9--9--7--7--5--5--4--4--9--9--9--9--|
A|--3--3--2--2--7--7--5--5--3--3--2--2--7--7--7--7--|
E|--------------------------------------------------|

I close my eyes and I can see her waiting oh so patient for me

    [C]      [B]      [E]      [D]      [C]      [B]      [E]                               
e|-----------------------------------------------|
B|-----------------------------------------------|
G|--5--5--4--4--9--9--7--7--5--5--4--4-----------|
D|--5--5--4--4--9--9--7--7--5--5--4--4--2--------|
A|--3--3--2--2--7--7--5--5--3--3--2--2--2--------|
E|--------------------------------------0--------|

| |
e|-----------------------------------------------|
B|--------------------------------------13p12-\\\\-|
G|-----------------------------------------------|
D|-----------------------------------------------|
A|-----------------------------------------------|
E|-----------------------------------------------|

I cover my ears, I close my mind, she's starting to fade

JASON'S EVERCLEAR TABS - http://members.tripod.com/~panec/

Important: The song above is NOT stored on the Chordie server. The original song is hosted at www.xguitar.com. Chordie works as a search engine and provides on-the-fly formatting. Chordie does not index songs against artists'/composers' will. To remove this song please click here.

Text color:
Chord color:
Chord grids: 
Font size:    
Page size: 

A B C D E G#
variations - click chord images

Login - add to songbook

Transpose chords

Tuning

Rating click stars to rate

Layout
Accuracy

SHARE PAGE  




You need to log in to post comments