Guitar Tabs, Chords and Lyrics


Pacific Wonderland   Everclear



Pacific Wonderland
As recorded by Everclear on the "White Trash Hell" EP and Fire Maple Song single
Tabbed by Aaron (thecyberrocker@hotmail.com) and Steve Smith (sesmith3@eos.ncsu.edu)

VERSION 1 - Tabbed by Aaron

Riff1: (x2)
e|-----------------------------------------------------------------|
B|-----------------------------------------------------------------|
G|-----------------------------------------------------------------|
D|-----------------------------------------------------------------|
A|-----------------------------------------------------------------|
E|-0-0-0-0-3-3-3-3-6-6-6-6-5-5-5-5-0-0-0-0-3-3-3-3-6---6---5-6-5-3-|

Riff2: (x2)
e|--------------------------------------------------------------|
B|--------------------------------------------------------------|
G|--------------------------------------------------------------|
D|-2-2-----5-5-----8--8---5-5-----3-3-----5-5-----8--8--5-8-5-5-|
A|-2-2-----5-5-----8--8---5-5-----3-3-----5-5-----8--8--5-8-5-5-|
E|-0-0-----3-3-----6--6---5-5-----1-1-----3-3-----6--6--5-6-5-3-|

Riff3: (x2)
e|-----------------------------------------------------------------|
B|-----------------------------------------------------------------|
G|-----------------------------------------------------------------|
D|-----------------------------------------------------------------|
A|---------2---3---2---3---2---0-----------2---3---------5-------3-|
E|-0---4----------------------------0--4-------------3-------1-----|

Outro:
e|---------------------------------------------------------|
B|---------------------------------------------------------|
G|---------------------------------------------------------|
D|-2-2-2-2-5-5-5-5-8-8-----------2-2-2-2-5-5-5-5-8-8-------|
A|-2-2-2-2-5-5-5-5-8-8-----------2-2-2-2-5-5-5-5-8-8-------|
E|-0-0-0-0-3-3-3-3-6-6-----------0-0-0-0-3-3-3-3-6-6-------|

e|--------------------------------|
B|--------------------------------|
G|--------------------------------|
D|-2-2-2-2-5-5-5-5-8--------------| hold................
A|-2-2-2-2-5-5-5-5-8--------------|
E|-0-0-0-0-3-3-3-3-6--------------|

e|--------------------------------|
B|--------------------------------|
G|--------------------------------|
D|-7-9-7-5-2-2--------------------|
A|-7-9-7-5-2-2--------------------|
E|-5-7-5-3-0-0--------------------|

Here's the order:
Riff1, Riff1, Riff2, Riff2, Riff3, Riff2, Riff1 (with solo),
Riff1 (very quietly with solo), Riff2, Riff1 (with solo), Outro

Sorry I don't know the solo parts. Maybe someone else can figure them out.


VERSION 2 - Tabbed by Steve Smith

This is a cool song with no lyrics. All I have is the rhythm guitar part,
sorry no lead stuff for it yet. If you want to know where to find this one,
 it's off the White Trash Hell CD, and maybe some others.

Rhythm riff
e|--------------------------------------
b|--------------------------------------
g|------------5-5--4-4-4-4--------------
d|--2-2--5-5--5-5--4-4-4-4--------------
a|--2-2--5-5--3-3--2-2-2-2--------------
e|--0-0--3-3----------------------------

sometimes at the end of that riff there is this little fill
e|-----------
b|-----------
g|-4---------
d|-4---------
a|-2-2h3p2-0-
e|-----------
questions? Comments? direct them to
sesmith3@eos.ncsu.edu



Important: The song above is NOT stored on the Chordie server. The original song is hosted at www.xguitar.com. Chordie works as a search engine and provides on-the-fly formatting. Chordie does not index songs against artists'/composers' will. To remove this song please click here.

This song is displayed as text-only. Transposing and tuning is only available for chordpro-songs.

Login - add to songbook

Rating click stars to rate

Layout
Accuracy

SHARE PAGE  




You need to log in to post comments