Guitar Tabs, Chords and Lyrics


Nervous And Wierd   Everclear



Nervous and Wierd
As recorded by Everclear on "World of Noise" LP
Tabbed by Jason Pan (balaka@alphalink.com.au) and Steve Smith (sesmith3@eos.ncsu.edu)

VERSION 1 - Tabbed by Jason Pan  

Intro is a quick G-F#-F-E chord slide down 

Verse
E        C         G       B	  	
E        C         G       A    

Chorus
E        G#
E        G#
E        G#
E        G/F#/F/E

Solo

e|--------| x4
B|o--11--o|
G|---12---|
D|--------|
A|o------o|
E|--------|

then,
e|--7--0--4--0--5--0--6--| x3
B|o---------------------o|
G|-----------------------|
D|-----------------------|
A|o---------------------o|
E|-----------------------|

then,
e|--2-2-2h3p2----------------------| 
B|-------------5------5--3--5-6-5b-|
G|---------------------------------|
D|---------------------------------|
A|---------------------------------|
E|---------------------------------|

Order:

Intro
Verse x4
Chorus
Verse x4
Chorus
Solo
Verse x2 (Palm muted heavily at the start and gradually loosen to no
          muting by the last line)
Verse x2
Chorus
                               
VERSION 2 - Tabbed by Steve Smith

e|------------------------------------------------
b|------------------------------------------------
g|---------0-0-0-0---5-5-5-5-------------4-4-4-4--
d|---------2-2-2-2---5-5-5-5---5-5-5-5---4-4-4-4--
a|---------2-2-2-2---3-3-3-3---5-5-5-5---2-2-2-2--
E|-3-2-0-----------------------3-3-3-3------------

C_C_E_E_E_E_E__C_C_E_E_E_E

Afraid to live in the day

Solo
e|--------------
b|--12h14-12h14-
g|--------------
d|--------------
a|--------------
e|-------------- (THEN)

e|--------------------------
b|--14p12-14p12-14p12-14-15-
g|--------------------------
d|--------------------------
a|--------------------------
e|-------------------------- (repeat 3 times)

e|---------------------------------------------
b|--14-15-17-17/15-15/14-14/12-12h14-12h14-----
g|---------------------------------------------
d|---------------------------------------------
a|---------------------------------------------
e|---------------------------------------------

questions, comments? 
sesmith3@eos.ncsu.edu 

Suggestion by CJ Minyard (coma316@ihateclowns.com)

the solo seems to be off on a lot of tabs, so here is my shot

Solo:
e|----------------------------------------------------------------------------------|
B|--12--12--12--12--12-15-12-14-12-13-12-14-12-15-12-14-12-13-12-14-12-15-12-14-12--|
G|--12--12--12--12------------------------------------------------------------------|
D|----------------------------------------------------------------------------------|
A|----------------------------------------------------------------------------------|
E|----------------------------------------------------------------------------------|

e|-------------------------------------------------------------------------------------|
B|--13-12-14-12-15-15-15-15-15-15-15-15-14-14-14-14-12-12-12-12-10b-----10b------------|
G|-------------------------------------------------------------------------------------|
D|-------------------------------------------------------------------------------------|
A|-------------------------------------------------------------------------------------|
E|-------------------------------------------------------------------------------10\0--|
                                                                                 PM..   

JASON'S EVERCLEAR TABS - http|//members.tripod.com/~panec/


Important: The song above is NOT stored on the Chordie server. The original song is hosted at www.xguitar.com. Chordie works as a search engine and provides on-the-fly formatting. Chordie does not index songs against artists'/composers' will. To remove this song please click here.

This song is displayed as text-only. Transposing and tuning is only available for chordpro-songs.

Login - add to songbook

Rating click stars to rate

Layout
Accuracy

SHARE PAGE  




You need to log in to post comments