Guitar Tabs, Chords and Lyrics


Your Genius Hands  Everclear

e|-------------------------------------------|


B|-------------------------------------------|


G|--7-7-7-7-7-7-7-7-7-7-7-7-7-7-7-7-7-7-7-7--|


D|--X-X-X-X-X-X-X-X-X-X-X-X-X-X-X-X-X-X-X-X--| Repeat 4 Times then


A|--5-5-5-5-5-5-5-5-5-5-5-5-5-5-5-5-5-5-5-5--| comes the lyrics


E|-------------------------------------------|

                    [D5]   Main Verse
v v v v v ^ v ^ v ^ v v v v v ^ v ^ v ^
e|-------------------------------------------| x4
B|-------------------------------------------|
G|--7-7-7-7-7-7-7-7-7-7-7-7-7-7-7-7-7-7-7-7--|
D|--X-X-X-X-X-X-X-X-X-X-X-X-X-X-X-X-X-X-X-X--|
A|--5-5-5-5-5-5-5-5-5-5-5-5-5-5-5-5-5-5-5-5--|
E|-------------------------------------------|

| D5 |
e|---------------------10-9--7--5------------|
B|-------------------------------------------|
G|-------------------------------------------|
D|-------------------------------------------|
A|-------------------------------------------|
E|-------------------------------------------|

I have seen you shake
And I know what it cost you
I have heard your words
I am big on your noise
v v v v v ^ v ^ v ^ v v v v v ^ v ^ v ^
e|------------------------------------------------------------|
b|------------------------------------------------------------|
G|--------7----------7-7-7-7-7-7-7-7-7-7-7-7-7-7-7-7-7-7-7-7--|
D|--9-8-7-7-7-6-5----X-X-X-X-X-X-X-X-X-X-X-X-X-X-X-X-X-X-X-X--|
A|--9-8-7-5-7-6-5----5-5-5-5-5-5-5-5-5-5-5-5-5-5-5-5-5-5-5-5--|
E|--7-6-5---5-4-3---------------------------------------------|

   [B]  [Bb]   [A]  [D]  [A]  [Ab]   [G]     My eyes aren't b[D5]ig enough
v v v v v ^ v ^ v ^ v v v v v ^ v ^ v ^
e|------------------------------------------------------------|
b|------------------------------------------------------------|
G|--------7----------7-7-7-7-7-7-7-7-7-7-7-7-7-7-7-7-7-7-7-7--|
D|--9-8-7-7-7-6-5----X-X-X-X-X-X-X-X-X-X-X-X-X-X-X-X-X-X-X-X--|
A|--9-8-7-5-7-6-5----5-5-5-5-5-5-5-5-5-5-5-5-5-5-5-5-5-5-5-5--|
E|--7-6-5---5-4-3---------------------------------------------|

| B Bb A D A Ab G D5 |
e|------------------------------------------------------------|
B|------------------------------------------------------------|
G|--------------------------------7--9-9h11-11p9-7------------|
D|------------------------------------------------------------|
A|------------------------------------------------------------|
E|------------------------------------------------------------|

`cause I can't see your hands
v v v v v ^ v ^ v ^ v v v v v ^ v ^ v ^
e|------------------------------------------------------------|
b|------------------------------------------------------------|
G|--------7----------7-7-7-7-7-7-7-7-7-7-7-7-7-7-7-7-7-7-7-7--|
D|--9-8-7-7-7-6-5----X-X-X-X-X-X-X-X-X-X-X-X-X-X-X-X-X-X-X-X--|
A|--9-8-7-5-7-6-5----5-5-5-5-5-5-5-5-5-5-5-5-5-5-5-5-5-5-5-5--|
E|--7-6-5---5-4-3---------------------------------------------|

| B Bb A D A Ab G D5 |
e|------------------------------------------------------------|
B|------------------------------------------------------------|
G|---------------------------------7--9--11-11-11-11----------|
D|------------------------------------------------------------|
A|------------------------------------------------------------|
E|------------------------------------------------------------|

I can't see what you hold______________
Bridge
e|-----------------|
b|-----------------|
G|--------7--------|
D|--9-8-7-7-7-6-5--|
A|--9-8-7-5-7-6-5--|
E|--7-6-5---5-4-3--|

   [B]  [Bb]   [A]  [D]  [A]  [Ab]   [G]  Verse
v v v v v ^ v ^ v ^ v v v v v ^ v ^ v ^
e|-------------------------------------------|
B|-------------------------------------------|
G|--7-7-7-7-7-7-7-7-7-7-7-7-7-7-7-7-7-7-7-7--|
D|--X-X-X-X-X-X-X-X-X-X-X-X-X-X-X-X-X-X-X-X--| Repeat 4 Times
A|--5-5-5-5-5-5-5-5-5-5-5-5-5-5-5-5-5-5-5-5--|
E|-------------------------------------------|

                    [D5]   Main Verse
v v v v v ^ v ^ v ^ v v v v v ^ v ^ v ^
e|-------------------------------------------| x4
B|-------------------------------------------|
G|--7-7-7-7-7-7-7-7-7-7-7-7-7-7-7-7-7-7-7-7--|
D|--X-X-X-X-X-X-X-X-X-X-X-X-X-X-X-X-X-X-X-X--|
A|--5-5-5-5-5-5-5-5-5-5-5-5-5-5-5-5-5-5-5-5--|
E|-------------------------------------------|

| D5 |
e|---------------10-10-9--7--5---------------|
B|-------------------------------------------|
G|-------------------------------------------|
D|-------------------------------------------|
A|-------------------------------------------|
E|-------------------------------------------|

I am growin' now
As I watch you fade
Now I know what you know
And I'll break the chains that you have made
v v v v v ^ v ^ v ^ v v v v v ^ v ^ v ^
e|------------------------------------------------------------|
b|------------------------------------------------------------|
G|--------7----------7-7-7-7-7-7-7-7-7-7-7-7-7-7-7-7-7-7-7-7--|
D|--9-8-7-7-7-6-5----X-X-X-X-X-X-X-X-X-X-X-X-X-X-X-X-X-X-X-X--|
A|--9-8-7-5-7-6-5----5-5-5-5-5-5-5-5-5-5-5-5-5-5-5-5-5-5-5-5--|
E|--7-6-5---5-4-3---------------------------------------------|

| B Bb A D A Ab G D5 |
e|------------------------------------------------------------|
B|------------------------------------------------------------|
G|---------------------------------7--9--11-11-11-11----------|
D|------------------------------------------------------------|
A|------------------------------------------------------------|
E|------------------------------------------------------------|

This chain you've made for me
v v v v v ^ v ^ v ^ v v v v v ^ v ^ v ^
e|------------------------------------------------------------|
b|------------------------------------------------------------|
G|--------7----------7-7-7-7-7-7-7-7-7-7-7-7-7-7-7-7-7-7-7-7--|
D|--9-8-7-7-7-6-5----X-X-X-X-X-X-X-X-X-X-X-X-X-X-X-X-X-X-X-X--|
A|--9-8-7-5-7-6-5----5-5-5-5-5-5-5-5-5-5-5-5-5-5-5-5-5-5-5-5--|
E|--7-6-5---5-4-3---------------------------------------------|

| B Bb A D A Ab G D5 |
e|------------------------------------------------------------|
B|------------------------------------------------------------|
G|--------------------------------7--9-9h11-11p9-7------------|
D|------------------------------------------------------------|
A|------------------------------------------------------------|
E|------------------------------------------------------------|

Yeah, I will pull you down
v v v v v ^ v ^ v ^ v v v v v ^ v ^ v ^
e|------------------------------------------------------------|
b|------------------------------------------------------------|
G|--------7----------7-7-7-7-7-7-7-7-7-7-7-7-7-7-7-7-7-7-7-7--|
D|--9-8-7-7-7-6-5----X-X-X-X-X-X-X-X-X-X-X-X-X-X-X-X-X-X-X-X--|
A|--9-8-7-5-7-6-5----5-5-5-5-5-5-5-5-5-5-5-5-5-5-5-5-5-5-5-5--|
E|--7-6-5---5-4-3---------------------------------------------|

| B Bb A D A Ab G D5 |
e|------------------------------------------------------------|
B|------------------------------------------------------------|
G|---------------------------------7--9--11-11-11-11----------|
D|------------------------------------------------------------|
A|------------------------------------------------------------|
E|------------------------------------------------------------|

I know I'll fail in style
e|-----------------|
b|-----------------|
G|--------7--------|
D|--9-8-7-7-7-6-5--|
A|--9-8-7-5-7-6-5--|
E|--7-6-5---5-4-3--|

   [B]  [Bb]   [A]  [D]  [A]  [Ab]   [G]  Chorus
e|-----------------------------------|
B|-----------------------------------|
G|-----------------------------------|
D|--4-4-4-4-4-4-4-4-5-5-5-5-5-5-5-5--|
A|--4-4-4-4-4-4-4-4-5-5-5-5-5-5-5-5--|
E|--2-2-2-2-2-2-2-2-3-3-3-3-3-3-3-3--|

   I long[F#] to touch your gen[G]ius hands
v v v v v ^ v ^ v ^ v v v v v ^ v ^ v ^
e|-------------------------------------------|
B|-------------------------------------------|
G|--7-7-7-7-7-7-7-7-7-7-7-7-7-7-7-7-7-7-7-7--| Repeat 6 Times
D|--X-X-X-X-X-X-X-X-X-X-X-X-X-X-X-X-X-X-X-X--|
A|--5-5-5-5-5-5-5-5-5-5-5-5-5-5-5-5-5-5-5-5--|
E|-------------------------------------------|

                    [D5]   Main Verse (Round 2)
v v v v v ^ v ^ v ^ v v v v v ^ v ^ v ^
e|-------------------------------------------| x3
B|-------------------------------------------|
G|--7-7-7-7-7-7-7-7-7-7-7-7-7-7-7-7-7-7-7-7--|
D|--X-X-X-X-X-X-X-X-X-X-X-X-X-X-X-X-X-X-X-X--|
A|--5-5-5-5-5-5-5-5-5-5-5-5-5-5-5-5-5-5-5-5--|
E|-------------------------------------------|

| D5 |
e|------------------10-9--7--5---------------|
B|-------------------------------------------|
G|-------------------------------------------|
D|-------------------------------------------|
A|-------------------------------------------|
E|-------------------------------------------|

I am growin' now
As I watch you fade
Now I know what you know
v v v v v ^ v ^ v ^ v v v v v ^ v ^ v ^
e|-------------------------------------------|
B|-------------------------------------------|
G|--7-7-7-7-7-7-7-7-7-7-7-7-7-7-7-7-7-7-7-7--|
D|--X-X-X-X-X-X-X-X-X-X-X-X-X-X-X-X-X-X-X-X--|
A|--5-5-5-5-5-5-5-5-5-5-5-5-5-5-5-5-5-5-5-5--|
E|-------------------------------------------|

| D5 |
e|---------------10-10h12p10-----------------|
B|-------------------------------------------|
G|-------------------------------------------|
D|-------------------------------------------|
A|-------------------------------------------|
E|-------------------------------------------|

And I'll break the chains that you have made
v v v v v ^ v ^ v ^ v v v v v ^ v ^ v ^
e|------------------------------------------------------------|
b|------------------------------------------------------------|
G|--------7----------7-7-7-7-7-7-7-7-7-7-7-7-7-7-7-7-7-7-7-7--|
D|--9-8-7-7-7-6-5----X-X-X-X-X-X-X-X-X-X-X-X-X-X-X-X-X-X-X-X--|
A|--9-8-7-5-7-6-5----5-5-5-5-5-5-5-5-5-5-5-5-5-5-5-5-5-5-5-5--|
E|--7-6-5---5-4-3---------------------------------------------|

| B Bb A D A Ab G D5 |
e|------------------------------------------------------------|
B|------------------------------------------------------------|
G|---------------------------------7--9--11-11-11-11----------|
D|------------------------------------------------------------|
A|------------------------------------------------------------|
E|------------------------------------------------------------|

This chain you've made for me
v v v v v ^ v ^ v ^ v v v v v ^ v ^ v ^
e|------------------------------------------------------------|
b|------------------------------------------------------------|
G|--------7----------7-7-7-7-7-7-7-7-7-7-7-7-7-7-7-7-7-7-7-7--|
D|--9-8-7-7-7-6-5----X-X-X-X-X-X-X-X-X-X-X-X-X-X-X-X-X-X-X-X--|
A|--9-8-7-5-7-6-5----5-5-5-5-5-5-5-5-5-5-5-5-5-5-5-5-5-5-5-5--|
E|--7-6-5---5-4-3---------------------------------------------|

| B Bb A D A Ab G D5 |
e|------------------------------------------------------------|
B|------------------------------------------------------------|
G|--------------------------------7--9-9h11-11p9-7------------|
D|------------------------------------------------------------|
A|------------------------------------------------------------|
E|------------------------------------------------------------|

Yeah, I will pull you down
v v v v v ^ v ^ v ^ v v v v v ^ v ^ v ^
e|------------------------------------------------------------|
b|------------------------------------------------------------|
G|--------7----------7-7-7-7-7-7-7-7-7-7-7-7-7-7-7-7-7-7-7-7--|
D|--9-8-7-7-7-6-5----X-X-X-X-X-X-X-X-X-X-X-X-X-X-X-X-X-X-X-X--|
A|--9-8-7-5-7-6-5----5-5-5-5-5-5-5-5-5-5-5-5-5-5-5-5-5-5-5-5--|
E|--7-6-5---5-4-3---------------------------------------------|

| B Bb A D A Ab G D5 |
e|------------------------------------------------------------|
B|------------------------------------------------------------|
G|---------------------------------7--9--11-11-11-11----------|
D|------------------------------------------------------------|
A|------------------------------------------------------------|
E|------------------------------------------------------------|

I know I'll fail in style
Bridge
e|-----------------|
b|-----------------|
G|--------7--------|
D|--9-8-7-7-7-6-5--|
A|--9-8-7-5-7-6-5--|
E|--7-6-5---5-4-3--|

   [B]  [Bb]   [A]  [D]  [A]  [Ab]   [G]  Chorus
e|-----------------------------------|
B|-----------------------------------|
G|-----------------------------------|
D|--4-4-4-4-4-4-4-4-5-5-5-5-5-5-5-5--|
A|--4-4-4-4-4-4-4-4-5-5-5-5-5-5-5-5--|
E|--2-2-2-2-2-2-2-2-3-3-3-3-3-3-3-3--|

         [F#]   I will, I swear[G]
e|-----------------------------------|
B|-----------------------------------|
G|-----------------------------------|
D|--4-4-4-4-4-4-4-4-5-5-5-5-5-5-5-5--|
A|--4-4-4-4-4-4-4-4-5-5-5-5-5-5-5-5--|
E|--2-2-2-2-2-2-2-2-3-3-3-3-3-3-3-3--|

         [F#] Whoa ee oh ee oh[G]
e|-------------------------------------|
B|-------------------------------------|
G|------------------------------14-14--|
D|--4-4-4-4-4-4-4-4-5-5-5-5-5-5-14-14--|
A|--4-4-4-4-4-4-4-4-5-5-5-5-5-5-12-12--|
E|--2-2-2-2-2-2-2-2-3-3-3-3-3-3--------|

    I'm g[F#]onna shake your ge[G]nius [A]hands
Verse
v v v v v ^ v ^ v ^ v v v v v ^ v ^ v ^
e|-------------------------------------------|
B|-------------------------------------------|
G|--7-7-7-7-7-7-7-7-7-7-7-7-7-7-7-7-7-7-7-7--|
D|--X-X-X-X-X-X-X-X-X-X-X-X-X-X-X-X-X-X-X-X--|
A|--5-5-5-5-5-5-5-5-5-5-5-5-5-5-5-5-5-5-5-5--|
E|-------------------------------------------|

         hands______[D5]__________________
v v v v v ^ v ^ v ^ v v v v v ^ v ^ v ^
e|-------------------------------------------|
B|-------------------------------------------|
G|--7-7-7-7-7-7-7-7-7-7-7-7-7-7-7-7-7-7-7-7--|
D|--X-X-X-X-X-X-X-X-X-X-X-X-X-X-X-X-X-X-X-X--|
A|--5-5-5-5-5-5-5-5-5-5-5-5-5-5-5-5-5-5-5-5--|
E|-------------------------------------------|

            Your gen[D5]ius hands
v v v v v ^ v ^ v ^ v v v v v ^ v ^ v ^
e|-------------------------------------------|
B|-------------------------------------------|
G|--7-7-7-7-7-7-7-7-7-7-7-7-7-7-7-7-7-7-7-7--|
D|--X-X-X-X-X-X-X-X-X-X-X-X-X-X-X-X-X-X-X-X--|
A|--5-5-5-5-5-5-5-5-5-5-5-5-5-5-5-5-5-5-5-5--|
E|-------------------------------------------|

         Hey !,  Hey[D5] !, Hey !,  Hey !
v v v v v ^ v ^ v ^ v v v v v ^ v ^ v ^
e|-------------------------------------------|
B|-------------------------------------------|
G|--7-7-7-7-7-7-7-7-7-7-7-7-7-7-7-7-7-7-7-7--|
D|--X-X-X-X-X-X-X-X-X-X-X-X-X-X-X-X-X-X-X-X--|
A|--5-5-5-5-5-5-5-5-5-5-5-5-5-5-5-5-5-5-5-5--|
E|-------------------------------------------|

| D5 |
e|------------10-10-10-x---10-9--------------|
B|------------------------------10-----------|
G|-------------------------------------------|
D|-------------------------------------------|
A|-------------------------------------------|
E|-------------------------------------------|

v v v v v ^ v ^ v ^ v v v v v ^ v ^ v ^
e|-------------------------------------------|
B|-------------------------------------------|
G|--7-7-7-7-7-7-7-7-7-7-7-7-7-7-7-7-7-7-7-7--|
D|--X-X-X-X-X-X-X-X-X-X-X-X-X-X-X-X-X-X-X-X--|
A|--5-5-5-5-5-5-5-5-5-5-5-5-5-5-5-5-5-5-5-5--|
E|-------------------------------------------|

            Your Gen[D5]ius Hands
v v v v v ^ v ^ v ^ v v v v v ^ v ^ v ^
e|-------------------------------------------|
B|-------------------------------------------|
G|--7-7-7-7-7-7-7-7-7-7-7-7-7-7-7-7-7-7-7-7--|
D|--X-X-X-X-X-X-X-X-X-X-X-X-X-X-X-X-X-X-X-X--|
A|--5-5-5-5-5-5-5-5-5-5-5-5-5-5-5-5-5-5-5-5--|
E|-------------------------------------------|

       Get it up, Ge[D5]t it up baby !
Outro
v v v ^ v v ^ v v
e|----------------------------------------------------|
B|----------------------------------------------------|
G|--------7---------7--7--7/9--9--9--9/11-11-11-11----|
D|--9-8-7-7-7-6-5---x--x--x-x--x--x--x-x--x--x--x-----|
A|--9-8-7-5-7-6-5---5--5--5/7--7--7--7/9--9--9--9-----|
E|--7-6-5---5-4-3-------------------------------------|

| B Bb A D A Ab G |
e|----------------------------------------------------|
B|----------------------------------------------------|
G|------------------7--7--7/9--9--9--9/11-11-11-11----|
D|----------------------------------------------------|
A|----------------------------------------------------|
E|----------------------------------------------------|

v v v ^ v v v
e|----------------------------------------------------|
B|----------------------------------------------------|
G|--------7---------7--7--7/9--9--9--9/11-11\9--7-----|
D|--9-8-7-7-7-6-5---x--x--x-x--x--x--x-x--x--x--x-----|
A|--9-8-7-5-7-6-5---5--5--5/7--7--7--7/9--9-\7--5-----|
E|--7-6-5---5-4-3-------------------------------------|

| B Bb A D A Ab G |
e|----------------------------------------------------|
B|----------------------------------------------------|
G|--------7---------7--7--7/9--9--9---9/11-11\9-7-----|
D|--9-8-7-7-7-6-5-------------------------------------|
A|--9-8-7-5-7-6-5-------------------------------------|
E|--7-6-5---5-4-3-------------------------------------|

   [B]  [Bb]   [A]  [D]  [A]  [Ab]   [G]                            v  v   v    ^  v   v    ^  v  v
e|----------------------------------------------------|
B|----------------------------------------------------|
G|--------7---------7--7---7/9--9--9---9/11-11-11-11--|
D|--9-8-7-7-7-6-5---x--x---x-x--x--x---x-x--x--x--x---|
A|--9-8-7-5-7-6-5---5--5---5/7--7--7---7/9--9--9--9---|
E|--7-6-5---5-4-3-------------------------------------|

| B Bb A D A Ab G |
e|----------------------------------------------------|
B|----------------------------------------------------|
G|------------------14-14-14/12-12-12-12/11-11-11-11--|
D|----------------------------------------------------|
A|----------------------------------------------------|
E|----------------------------------------------------|
e|------------------------------------------------------------|
B|------------------------------------------------------------|
G|---------------------------------7~~------------------------|
D|--9-8-7-x-9-8-7-x-9-8-7-x-7-6-5--7~~------------------------|
A|--9-8-7-x-9-8-7-x-9-8-7-x-7-6-5--5~~------------------------|
E|--7-6-5-x-7-6-5-x-7-6-5-x-5-4-3-----------------------------|

| |
e|------------------------------------------------------------|
B|------------------------------------------------------------|
G|--11b-(let ring)-----------9------7-------7-7-----7-5-4---2-|
D|------------------------------------------------------------|
A|------------------------------------------------------------|
E|------------------------------------------------------------|

JASON'S EVERCLEAR TABS - http://members.tripod.com/~panec/

Important: The song above is NOT stored on the Chordie server. The original song is hosted at www.xguitar.com. Chordie works as a search engine and provides on-the-fly formatting. Chordie does not index songs against artists'/composers' will. To remove this song please click here.

Text color:
Chord color:
Chord grids: 
Font size:    
Page size: 

A Ab B Bb D D5 F# G
variations - click chord images

Login - add to songbook

Transpose chords

Tuning

Rating click stars to rate

Layout
Accuracy

SHARE PAGE  




You need to log in to post comments