Chordie logo


Angel   Everlast



[Intro/Verse]
e-----------------------------------------------------------------------------------
b-----------------------------------------------------------------------------------
g-----------2--4p2-------------------------2--4p2------------------------------
d-------0--------------3--2------------0--------------3s5-----------------------
a-------------------------------3------------------------------3--------------------
E------------------------------------------------------------------------------------


[Chorus]
       D      C      G        A   D
e------------------------------------------------------
b------------------------------------------------------
g------7------5-------------------7--------------------
d------7------5------5--------7---7-------------------
a------5------3------5--------7---5-------------------
E--------------------3--------5------------------------


[Bridge]
       D      C      A
e-----------------------------------------
b-----------------------------------------
g------7------5------2--------------------
d------7------5------2--------------------
a------5------3------0--------------------


Important: The song above is NOT stored on the Chordie server. The original song is hosted at www.xguitar.com. Chordie works as a search engine and provides on-the-fly formatting. Chordie does not index songs against artists/composers will. To remove this song please click here.

This song is displayed as text-only. Transposing and tuning is only available for chordpro-songs.

Login - add to songbook

Rating click stars to rate

Layout
Accuracy

SHARE PAGE  




You need to log in to post comments