Guitar Tabs, Chords and Lyrics


Apocalypse Now and Then    Every Time I Die



Every Time I Die - Apocolypse Now And Then
Tabbed By: etid_kid
Email: etid_kid@yahoo.com

Tuning: Drop D (D A D G B E)

First track on the brand new album, Gutter Phenomenon.

h = hammer on
p = pull off
. = palm mute

INTRO:
(guitar one)
E|----------------|----------------||
B|----------------|----------------||
G|----------------|----------------||
D|----------------|----------------||
A|--------2p0-----|------5---------||
D|0h3-4p0-----4p3-|0h3-0---4p0-3h4-||

(both guitars)
E|--------------------------------||
B|--------------------------------||
G|--------------------------------||
D|--------------------------------||
A|3-----3-----3-(let ring)--------||
D|4-----4-----4-(let ring)--------||


VERSE RIFF:
(both guitars)
E|----------------------------------------------------------------||
B|----------------------------------------------------------------||
G|----------------------------------------------------------------||
D|----------------------------------------------------------------||
A|----------------2p0---------2p0---------2p0-2p0-----------------||
D|0h3-4p3-0h3-4p0-----4p3-0h3-----4p3-0h3---------4-3-------------||
          ^play this riff 4 times.

PRECHORUS:
(guitar one)
E|----------------|----------------||
B|----------------|----------------||
G|----------------|----------------||
D|----------------|----------------||
A|--------2p0-----|------5---------||
D|0h3-4p0-----4p3-|0h3-0---4p0-3h4-||

(both)

E|----------------||
B|----------------||
G|----------------||
D|----------------||
A|3-----3---002---||
D|4-----4---003---||
            ..

E|----------------|----------------|----------------|----------------||
B|----------------|----------------|----------------|----------------||
G|----------------|----------------|----------------|----------------||
D|----------------|----------------|----------------|4-3-----00000---||
A|--------2p0-----|------5---------|--------2p0-----|4-3-----00000---||
D|0h3-4p0-----4p3-|0h3-0---4p0-3h4-|0h3-4p0-----4p3-|4-3-----00000---||
                                                             .....

E|----------------|----------------|--------------||
B|----------------|----------------|--------------||
G|----------------|----------------|--------------||
D|----------------|----------------|--------------||
A|--------2p0-----|------5---------|3-----3---002-||
D|0h3-4p0-----4p3-|0h3-0---4p0-3h4-|4-----4---003-||
                                              ..

E|----------------|----------------|----------------|----------------||
B|----------------|----------------|----------------|----------------||
G|----------------|----------------|----------------|----------------||
D|----------------|----------------|----------------|4-3-----00000---||
A|--------2p0-----|------5---------|--------2p0-----|4-3-----00000---||
D|0h3-4p0-----4p3-|0h3-0---4p0-3h4-|0h3-4p0-----4p3-|4-3-----00000---||
                                                             .....


E|----------------|----------------|----------------|----------------||
B|----------------|----------------|----------------|----------------||
G|----------------|----------------|----------------|----------------||
D|----------------|----------------|----------------|--------4---4---||
A|--------2p0-----|------5---------|3-----3-----2---|--2-----5---5---||
D|0h3-4p0-----4p3-|0h3-0---4p0-3h4-|4-----4-----3---|--3-------------||

CHORUS:
(guitar one)                       (both)
E|----------------|----------------|----------------|----------------||
B|----------------|----------------|----------------|----------------||
G|----------------|----------------|----------------|----------------||
D|----------------|----------------|4-4-000000004-4-|000000004---4---||
A|3-3-3-3-3-3-3-3-|2-2-2-2-2-2-2-2-|5-5-000000005-5-|000000005---5---||
D|4-4-4-4-4-4-4-4-|3-3-3-3-3-3-3-3-|----00000000----|00000000--------||
                                        ........     ........
[i'm not gonna tab out the whole chorus, but you get the general idea.
   it uses all the same notes so i'm sure you can figure it out.]

OUTRO:

E|----------------|----------------|----------------|----------------||
B|----------------|----------------|----------------|----------------||
G|----------------|----------------|----------------|----------------||
D|----------------|----------------|----------------|--0---0---------||
A|5-2-------------|2---------------|5-2-------------|--0---0---------||
D|-----3--4--0-0--|----3---4-------|-----3--4--0-0--|--0---0---------||



structure..
INTRO
VERSE
PRECHORUS
CHORUS
PRECHORUS (the bass part)
VERSE
CHORUS
OUTRO




Important: The song above is NOT stored on the Chordie server. The original song is hosted at www.xguitar.com. Chordie works as a search engine and provides on-the-fly formatting. Chordie does not index songs against artists'/composers' will. To remove this song please click here.

This song is displayed as text-only. Transposing and tuning is only available for chordpro-songs.

Login - add to songbook

Rating click stars to rate

Layout
Accuracy

SHARE PAGE  




You need to log in to post comments