Chordie logo

15 Years    Exploited



e-mail:audigi@freemail.hu
Tuning:EADGBe


INTRO: BASS



VERSE/BRIDGE


e:---------------------------------------------
H:---------------------------------------------
G:---------------------------------------------
D:------11---------11-------11-----------------
A:99999--9----99999-9--99999-9--5555-4444------
E:77777-------77777----77777----3333-2222------



CHORUS:

1st part:

e:---------------------------
H:---------------------------
G:---------------------------
D:---------------------------
A:7-5-4-0-4-55555555---------
E:5-3-2-0-2-33333333---------



2nd part of chorus:


e:------------------------------
H:------------------------------
G:------------------------------
D:----11-----11-----------------
A:999-9---999-9--999--5-4-5-7---
E:777-----777----777--3-2-3-5---





Important: The song above is NOT stored on the Chordie server. The original song is hosted at www.xguitar.com. Chordie works as a search engine and provides on-the-fly formatting. Chordie does not index songs against artists/composers will. To remove this song please click here.

This song is displayed as text-only. Transposing and tuning is only available for chordpro-songs.

Login - add to songbook

Rating click stars to rate

Layout
Accuracy

SHARE PAGE  



You need to log in to post comments