Chordie logo

Holiday in the Sun    Exploited



exploited is the best punk band ever since 1979

part 1:
|-----------------------------------|
|-----------------------------------|
|-----------------------------------|
|------1-5--------------666666------|
|55555-3-3--(3 time an)-444444------|
|33333------------------------------|

part 2:
|-|----------------------------------|
|-|----------------------------------|
|-|----------------------------------|
|-|-------5-44-----------------------|
|6|55555--3-22--5-42-----------------|
|4|33333--------3-22-----------------|

solo? too f*****g hot to tab!



Important: The song above is NOT stored on the Chordie server. The original song is hosted at www.xguitar.com. Chordie works as a search engine and provides on-the-fly formatting. Chordie does not index songs against artists/composers will. To remove this song please click here.

This song is displayed as text-only. Transposing and tuning is only available for chordpro-songs.

Login - add to songbook

Rating click stars to rate

Layout
Accuracy

SHARE PAGE  



You need to log in to post comments