Guitar Tabs, Chords and Lyrics


U.S.A.    Exploited



The Exploited                     */\*
*** the USA                     */..\*
(standard tuning)               */....\*
EADGBE                            ³--³
                                  ³--³
                                  ³--³
                                  ³--³
                                  ³--³
                                  ³--³
                                  ³--³
                                  ³--³
                                  ³--³
                            ³\    ³--³    _
                            ³ \   ³--³   / ³
                            ³  \  ³--³  /  ³
                            ³   \ ³--³ /   ³
                            ³    \³--³/    ³
                            ³     ³--³     ³
                            ³              ³
                            ³              ³
                             \    ^^^^     ³
                              \          * ³
                               \  ^^^^ *   /
                                \ ²²²²    /
                                 \_______/



                 (intro)
            e----------------------------------------------
            B----------------------------------------------
            G---------------------------------------------- (2x)
            D-7----10-----9-----12------7-----10-----9-----
            A-7----10-----9-----12------7-----10-----9-----
            E-5----8------7-----10------5-----8------7-----



                 (verse)
             -------------------------
             -------------------------
             ------------------------- (4x)
             -7777-10101010-9999-5555-
             -7777-10101010-9999-5555-
             -5555-8-8-8-8--7777-3333-


                (chorus)
             ------------------------------
             ------------------------------
             ------9999-------------------- (4x)
             -7777-9999-10101010--11-10-11-
             -7777-7777-10101010--11-10-11-
             -5555------8-8-8-8---9--8--9--

            (Listen to song to get the rythem)


               This is qwhat i give to you my favorite band


Important: The song above is NOT stored on the Chordie server. The original song is hosted at www.xguitar.com. Chordie works as a search engine and provides on-the-fly formatting. Chordie does not index songs against artists'/composers' will. To remove this song please click here.

This song is displayed as text-only. Transposing and tuning is only available for chordpro-songs.

Login - add to songbook

Rating click stars to rate

Layout
Accuracy

SHARE PAGE  




You need to log in to post comments