"yes"; ?> Hole Hearted by Extreme - guitar chords, guitar tabs and lyrics - chordie

Hole Hearted

Extreme

------------------------------------------------------------

------------------------------------------------------------
------------------------------2---5^6----7--5^6----7--5-----
--5^7--7-7-7-5^0--------------2---5---7--7--5---7--7--5--5--
--0------0-0-----3(+bend1/4)--0-------0---------0-----------
------------------------------------------------------------
------------------------------2-------------------------------------
------------------------------3--------------------------------x-0--
------------------------------2---------0----------------------x-0--
--5^7--7-7-7-5^0-------------------0^2---------0---------------x-0--
--0------0-0-----3(+bend1/4)---------------3^5----2^3-2^0---0-------
----------------------------------------------------------3---------

 AA
--------------------------------------------------------------
--------------------------------------------------------------
--------------------------------2---5^6----7--5^6----7--5-----
--5^7--7-7-7-7^5^0--------------2---5---7--7--5---7--7--5--5--
--0------0-0-------3(+bend1/4)--0-------0---------0-----------
--------------------------------------------------------------


 AD
--------------------------------2---------------------------------------
--------------------------------3----------------------------------x-0--
--------------------------------2---------0------------------------x-0--
--5^7--7-7-7-7^5^0-------------------0^2---------0-----------------x-0--
--0------0-0-------3(+bend1/4)---------------3^5----2^3-0^2^0---0-------
--------------------------------------------------------------3---------


Quote: "The rest, I'm sure you've figured or can figure out easily enough."
-Edwin

Personally, I didn't find the rest that easy to figure, so I'll post it.
If you're having a hard time too, I hope it serves you.

Intro

 DE7(+sus4F(+b3
--2--2--4------I--2--2--4--4------I--2--2--4----4--4-4--I--2--4--5--5--5-5--I
--3--3--5------I--3--3--5----5----I--3--3--5----5--5-5--I--3--5--6--6--6-6--I
--2--2--4------I--2--2--4------4--I--2--2--4----4--4-4--I--2--4--5--5--5-5--I
--0--0--0------I--0--0--0---------I--0--0--0----0--0-0--I--0--0--0--0--0-0--I
--0--0--0------I--0--0--0---------I--0--0--0----0--0-0--I--0--0--0--0--0-0--I
---------------I------------------I------------(4times)-I----------(4times)-I


Chorus 1. part (play 2 times)

sus2]
--2--2-xxx--9--9--xxx--I--7---0---2----2----2------I
--3--3-xxx-10-10--xxx--I--8---5---3----3----3---00-I
--2--2-xxx--9--9--xxx--I--7---6---2----2-2--2---00-I
--0--0------0--0-------I--0---0---0------0--0---00-I
--0--0------0--0-------I--0---0---0------0--0------I
-----------------------I---------------------------I

* incredibly hard to figure!

 ADsus2A
--0--0------0--0-------I--0---0---0----0-0--0-----I
--2--2--xxx-7--7--xxx--I--5---7---5----5-5--5--xx-I
--2--2--xxx-7--7--xxx--I--6---7---6----6-6--6--xx-I
--2--2--xxx-7--7--xxx--I--7---7---7----7-7--7--xx-I
--0--0------0--0-------I--0---0---0----0-0--0-----I
-----------------------I--------------------------I


Chorus 2. part

 GCsus2G
--3---3--3-3--3--3-------I--3---3--3-3--3--3-3--3--I
--3---3--3-3--3--3-------I--3---3--3-3--3--3-3--3--I
--0---0--0-0--0--0-0--0--I--0---0--0-0--0--0-0--0--I
--0---0--0-0--0--0-0--0--I--2---2--2-2--2--2-2--0--I
--2---2--2-2--2--2-0--2--I--3---3--3-3--3--3-3--0--I
--3---3--3-3--3--3-3--3--I-------------------------I
--2--2-xxx--4--4--xxx--I--2--2---2->-4--4--4-4--I
--3--3-xxx--5--5--xxx--I--3--3---3->-5--5--5-5--I
--2--2-xxx--4--4--xxx--I--2--2---2->-4--4--4-4--I
--0--0------0--0-------I--0--0---0---0----------I
--0--0------0--0-------I--0--0---0---0----------I
-----------------------I------------------------I
--3---3--3-3--3--3-------I--3---3--3-3--3--3-3--3--I
--3---3--3-3--3--3-------I--3---3--3-3--3--3-3--3--I
--0---0--0-0--0--0-0--0--I--0---0--0-0--0--0-0--0--I
--0---0--0-0--0--0-0--0--I--2---2--2-2--2--2-2--0--I
--2---2--2-2--2--2-0--2--I--3---3--3-3--3--3-3--0--I
--3---3--3-3--3--3-3--3--I-------------------------I


 D/FD/E
--2--2-xxx--4--4--xxx--I------------2----------------2------I
--3--3-xxx--5--5--xxx--I--------------3----------------3----I
--2--2-xxx--4--4--xxx--I----------------2----------------2--I
--0--0------0--0-------I---------0----------------0---------I
--0--0------0--0-------I------0----------------0------------I
-----------------------I--1----------------0----------------I
--2--2--4----I------------2----------------2------I
--3--3--5----I--------------3----------------3----I
--2--2--4----I----------------2----------------2--I
--0--0--0----I---------0----------------0---------I
--0--0--0----I------0----------------0------------I
-------------I--1----------------0----------------I


Outro Variation of 2.part

--3---3--3-3--3--3-------I--3---3--3-3--3--3-3--3--I
--3---3--3-3--3--3-------I--3---3--3-3--3--3-3--3--I
--0---0--0-0--0--0-0--0--I--0---0--0-0--0--0-0--0--I
--0---0--0-0--0--0-0--0--I--2---2--2-2--2--2-2--0--I
--2---2--2-2--2--2-0--2--I--3---3--3-3--3--3-3--0--I
--3---3--3-3--3--3-3--3--I-------------------------I
--2--2-xxx---9--7--2-----I
--3--3-xxx--10--8--3--00-I
--2--2-xxx---9--7--2--00-I
--0--0-------0--0--0--00-I
--0--0-------------------I
-------------------------I


Intro
Verse (8x)
Chorus 1. part (2x)
Chorus 2. part
Verse (8x)
Chorus 1. part (2x)
Chorus 2. part (with variation)
Chorus 2. part

That's all. Not 100% sure of the voicings, but Nuno plays 12 string and I can
only afford 6, so everything he plays sounds so rich to me, that I tried to play
the maximum amount of strings possible. (How do you call chords like "E7(+sus4)"
properly ???)

Says Edwin: "Knock yourselves out"


A Csus2 D D/E D/F Dsus2 G
variations - click chord images
Transpose chords:
Tuning:
Cool service:
View: Size:
A  A  A
Rating:
Layout:
  • Currently 2.7/5 Stars.
  • 1
  • 2
  • 3
  • 4
  • 5
 
Accuracy:
  • Currently 4.2/5 Stars.
  • 1
  • 2
  • 3
  • 4
  • 5
 
click stars to rate
Chordie recommends:
Get acoustic guitar lessons and electric guitar lessons at JamPlay.com
Songbook:
Login to add this song to your songbook
Support the artist
Preview/buy this song
MSN Music
Why this non-profit ad?

 
login to add comments/video/corrections