Chordie logo

Short, Fast, And Loud    Fall Out Boy



Band: Fall Out Boy
Song: Short Fast And Loud

Tabber: John Cukras
Email: riffreaper@yahoo.com

Tuning: Normal

Intro:
E-----------------------
B-----------------------
G-----------------------
D----------------------2
A-4-2-3-4-5-4-3-4-5-6--2
E-2---------2----------0

Riff 1: 2 guitars. 0pm's throughout.  A                 B
E---------------------------------------------|-----------------------------------------------------
B---------------------------------------------|-----------------------------------------------------
G---------------------------------------------|-----------------------------------------------------
D-3-2-3-2-3-2-3-5-3-2-3 x's 3--5-7-9-10-9-7-5-|-3-2-3-2-3-2-3-5-3-2-3-x's 2--22----22----22----22---
A------------------------------3-5-7-8--7-5-3-|------------------------------22-55-22-55-22-55-22-55
E---------------------------------------------|------------------------------00-33-00-33-00-33-00-33

Riff 1: A , B

Riff 2:  Guitar 1                                    Guitar 2
E-----------------------------------------------|----------
B-----------------------------------------------|----------
G-----------22-22-------------------------------|----------
D-55-55-----22-22-22----------------------------|-3-5-3-2h3 x's 8
A-33-33-55--00-00-22--55-55/33--77-77/55--------|----------
E-------33--------00--33-33/11--55-55/33 x's 2--|----------

Riff 1: A , B

Riff 1: A , B

Riff 3:
E-----------------------------------------------
B-----------------------------------------------
G-----------------------------------------------
D----9----99-----7----77-----5----55-----7----77
A-77---77-----55---55-----33---33-----55---55--- x's 4
E-----------------------------------------------



Important: The song above is NOT stored on the Chordie server. The original song is hosted at www.xguitar.com. Chordie works as a search engine and provides on-the-fly formatting. Chordie does not index songs against artists/composers will. To remove this song please click here.

This song is displayed as text-only. Transposing and tuning is only available for chordpro-songs.

Login - add to songbook

Rating click stars to rate

Layout
Accuracy

SHARE PAGE  



You need to log in to post comments