Guitar Tabs, Chords and Lyrics


Babylon    Faster Pussycat



Babylon By Faster Pussycat

This song is real easy to play..Only two riffs in the whole song..
Verse riff is played with slight variations thoughout..

     Intro and verse and solo backing riff
||----------------------------------------------------------------------|
||----------------------------------------------------------------------|
||*--------------------2-----4--4-----2--2------------------------------|
||*-----------2--------2-----4--4--5--2--2--5--2--x--x--x--x--2--2------|
||------------2--------0-----2--2--5--0--0--5--2--x--x--x--x--2--2------|
||---0--3--0--0--3--0-----0--------3--------3--0--x--x--x--x--0--0------|


 Chorus riff
|---------------------------------------|--------------------------------|
|---------------------------------------|--------------------------------|
|7--------------------------------------|--------------------------------|
|7--9-----------2~~~--------------2~~~--|--------------------------------|
|5--9-----------------------------------|--------------------------------|


Important: The song above is NOT stored on the Chordie server. The original song is hosted at www.xguitar.com. Chordie works as a search engine and provides on-the-fly formatting. Chordie does not index songs against artists'/composers' will. To remove this song please click here.

This song is displayed as text-only. Transposing and tuning is only available for chordpro-songs.

Login - add to songbook

Rating click stars to rate

Layout
Accuracy

SHARE PAGE  




You need to log in to post comments