Guitar Tabs, Chords and Lyrics


A Pleasant Shade of Grey: Pt. 11    Fates Warning



A PLEASANT SHADE OF GRAY--FATES WARNING
from 1997's "A Pleasant Shade of Gray" album
Metal Blade
Lyrics and music by Jim Matheos

Transcribed by Eric Schlelein
email eric@u.arizona.edu

Part XI (3:34):

e--------------------|---------------------|
B--------------------|---------------------|
G--------------------|---------------------|
D----2---------------|--4--2---------------|  (repeat)
A-------5--3-2-------|-------5-3-2---------|
E-2------------3-0-2-|-------------3-0-2---|

A--9--8-----7--6-----5--4-----3--2-----------|
E--------9--------7--------5--------3--0--2--|
(layer)                                      |
D--9--8-----7--6-----5--4-----3--2-----------|
A--------9--------7--------5--------3--0--2--|
                                             |
G-11-10-----9--8-----7--6-----5--4-----------|
D-------11--------9--------7--------5--2--3--|

e---------------------------------------|
B---------------------------------------|
G--------2-------4-6---------------7----|
D------6-------6---------7-9-----9---11-|
A----4-------6---------7-------9--------|
E--2-------4---------5-------7----------|

e---------------------------------------|
B---------------------------------------|
G--------2-------4-6------------7-9-11--|
D------6-------6-------------11---------|
A----4-------6---------7---9------------|
E--2-------4---------5---7--------------|

e---------------------------------------|
B---------------------------------------|
G--------2-------4-6--------------------|
D------6-------6---------7-9-----9------|
A----4-------6---------7-------9-----11-|
E--2-------4---------5-------7-----9----|

e-----------------------------------------|
B-----------------------------------------|
G--------2-------4-6----------------------|
D------6-------6-------------9------------|
A----4-------6---------7---9-----11-------|
E--2-------4---------5---7-----9----10-12-|

        -->just like in Part VIII
#cutline#
e-----------------|----------------------------|
B-----------------|----------------------------|
G-----------------|----------------------------|
D-4-----4---------|-4-----4--------------------|
A---5-------7-5-4-|---5-------7-5-4-----4-5-7--|
E-----7---7-------|-----7---7-------5-7--------|

e-----------------|-------------------------------|
B-----------------|-------------------------------|
G-----------------|-------------------------------|
D-4-----4---------|-4-----4-------------------6-7-|
A---5-------7-5-4-|---5-------7-5-4-----4-5-7-----|
E-----7---7-------|-----7---7-------5-7-----------|

e-----------------|------------------------------|
B-----------------|------------------------------|
G-----------------|------------------------------|
D-----------------|------------------------------|
A-4-----4---2-----|-4-----4---2-4-------------2--|
E---5-2---2---5-4-|---5-2---2-----5-2-0-2-4-5----|

e-----------------|-----------------------------------|
B-----------------|-----------------------------------|
G-----------------|---------------------------------2-|
D-----------------|-----------------------------4-5---|
A-4-----4---2-----|-4-----4---2-4-------------2-------|
E---5-2---2---5-4-|---5-2---2-----5-2-0-2-4-57---------|
#cutline#

Do you think that I remember, do you think that I recall
When you were falling and I just watched it all?

Do you think that I remember, do you thing that I recall
When you were breaking and I just let the pieces fall?

Don't you think that I remember, don't you think that I recall
When you were alone and I didn't hear your call?

e-2-----2------------|-2-----2----------------|
B---3-------5-2-3----|---3-------5-2-3---2----|
G-----4---4-------5--|-----4---4-------5---2--|
D--------------------|------------------------|
A--------------------|------------------------|
E--------------------|------------------------|

e-2-----2------------|-2-----2--------------------|
B---3-------5-2-3----|---3-------5-2-3---2---1----|
G-----4---4-------5--|-----4---4-------5---2---2--|
D--------------------|----------------------------|
A--------------------|----------------------------|
E--------------------|----------------------------|

#cutline#

e-------------------------------------------------------------|
B-------------------------------------------------------------|
G---6-7-9-----------------------------------------------------|
D-9-------6-7-9-------4-5-7-----------------------------------|
A---------------4-5-7---------4-5-------4-5-7-------4-5-------|
E---------------------------7-----4-5-7-------4-5-7-----4-5-2-|

e------------------------------------------------|
B------------------------------------------------|
G------------------------------------------------|
D------------------------------------------4-----|
A------------------------------------------4-----|
E-2-2-2--2--2-2-2--2--2--2-2--2--2-2-2--2--2====>|



Important: The song above is NOT stored on the Chordie server. The original song is hosted at www.xguitar.com. Chordie works as a search engine and provides on-the-fly formatting. Chordie does not index songs against artists'/composers' will. To remove this song please click here.

This song is displayed as text-only. Transposing and tuning is only available for chordpro-songs.

Login - add to songbook

Rating click stars to rate

Layout
Accuracy

SHARE PAGE  




You need to log in to post comments