Guitar Tabs, Chords and Lyrics


A Pleasant Shade of Grey: Pt. 7    Fates Warning


e-----|---|-7----|-6--------|-----|---|-7----|-6------------|
B-----|---|----8-|----3/-0--|-----|---|----8-|---8--7--5----|
G-----|---|------|----------|-----|---|------|--------------|
D--2--|---|------|----------|--2--|---|------|--------------|
A--2--|---|------|----------|--2--|---|------|--------------|
E--0--|---|------|----------|--0--|---|------|--------------|








        -->repeat





[7/4 time]     [5/4 time]  [7/4 time]    [5/4 time] 


                                                                   


e-------------|-----------|-------------|-----------|
B-------------|-----------|-------------|-----------|
G-------------|-----------|-------------|-----------|
D----5-----2--|----5------|----5-----2--|----5------|
A--------5----|--------5--|--------5----|--------5--|
E--0---3------|--0---3----|--0---3------|--0---3----|








[7/4 time]     [5/4 time]  [7/4 time]    [5/4 time] 


                                                                   


e-------------|-----------|-------------|-------------|
B-------------|-----------|-------------|-------------|
G-------------|-----------|-------------|-------------|
D----5-----2--|----5------|----5-----2--|----5--------|
A--------5----|--------5--|--------5----|--------5----|
E--0---3------|--0---3----|--0---3------|--0---3---3--|








[6/8 time] 


                                                                   


e--------------------------|-------------------------|
B--------------------------|-------------------------|
G--------------------------|-------------------------|
D--------------------------|-------------------------|
A--------------------------|-------------------------|
E--0--0--0---0---0--0--0---|--0--0--0---0---0--0--3/-|








                                                                   


e--------------------------|-------------------------|
B--------------------------|-------------------------|
G--------------------------|-------------------------|
D--------------------------|-------------------------|
A--------------------------|-------------------------|
E--0--0--0---0---0--0--0---|--0--0--0---0---0--0--3/-|
e--------------------------|-------------------------|
B--------------------------|-------------------------|
G--------------------------|-------------------------|
D--------------------------|-------------------2-----|
A--------------------------|----------------5--------|
E--0--0--0---0---0--0--0---|--0--0---0---3--------3--|
e--------------------------|-------------------------|
B--------------------------|-------------------------|
G--------------------------|-------------------------|
D--------------------------|-------------------------|
A--------------------------|-------------------------|
E--0--0--0---0---0--0--0---|--0--0--0---0---0--0--3/-|
e--------------------------|-------------------------|
B--------------------------|-------------------------|
G--------------------------|-------------------------|
D--------------------------|-------------------2-----|
A--------------------------|--3--3----------5--------|
E--0--0--0---0---0--0--0---|--1--1----0--3--------3--|








Stare from the darkness hear the silence call?





                                                                   


e--------------------------|-------------------------|
B--------------------------|-------------------------|
G--------------------------|-------------------------|
D--------------------------|-------------------------|
A--------------------------|-------------------------|
E--0--0--0---0---0--0--0---|--0--0--0---0---0--0--3/-|
e--------------------------|-------------------------|
B--------------------------|-------------------------|
G--------------------------|-------------------------|
D--------------------------|-------------------2-----|
A--------------------------|----------------5--------|
E--0--0--0---0---0--0--0---|--0--0---0---3--------3--|
e--------------------------|-------------------------|
B--------------------------|-------------------------|
G--------------------------|-------------------------|
D--------------------------|-------------------------|
A--------------------------|-------------------------|
E--0--0--0---0---0--0--0---|--0--0--0---0---0--0--3/-|
e--------------------------|----------|
B--------------------------|----------|
G--------------------------|----------|
D--------------------------|----------|
A--------------------------|--3--3----|
E--0--0--0---0---0--0--0---|--1--1----|








Devise divisions, delay decisions, watch the hours crawl and...





                                                                  


e-----|-----|-----|--------------|
B-----|-----|-----|--------------|
G--9--|--7--|--9--|--12--14--10--|
D--9--|--7--|--9--|--12--14--10--|
A--7--|--5--|--7--|--10--12--8---|
E--0--|--5--|--0--|--------------|








Let nothing bleed into nothing and do nothing?


Let nothing bleed into nothing and do nothing at all?





Recite soliloquies to shadows on the wall?


revise revisions, reverse decisions, watch our heros fall and





                                                                  


e-----|-----|-----|--------------|
B-----|-----|-----|--------------|
G--9--|--7--|--9--|--12--14--10--|
D--9--|--7--|--9--|--12--14--10--|
A--7--|--5--|--7--|--10--12--8---|
E--0--|--5--|--0--|--------------|








Let nothing bleed into nothing and do nothing?


Let nothing bleed into nothing and do nothing at all?





e-----|


B-----|


G-----|


D--2--|


A--2--|


E--0--|





        -->nine measures of sound effects





                                                                  


e--------------------------|-------------------------|
B--------------------------|-------------------------|
G--------------------------|-------------------------|
D--------------------------|-------------------------|
A--------------------------|-------------------------|
E--0--0--0---0---0--0--0---|--0--0--0---0---0--0--3/-|
e-------------------10-11-12-15-13-12-13-12-|
B----------10-11-12-------------------------|
G--9-11-12----------------------------------|
D-------------------------------------------|
A-------------------------------------------|
E-------------------------------------------|
e-----------------------------------------|
B-13-12-15-14-13-12-----------------------|
G-------------------15-14-13-12-12-11-10--|
D-----------------------------------------|
A-----------------------------------------|
E-----------------------------------------|
e-----|-----|-----|--------------|
B-----|-----|-----|--------------|
G--9--|--7--|--9--|--12--14--10--|
D--9--|--7--|--9--|--12--14--10--|
A--7--|--5--|--7--|--10--12--8---|
E--0--|--5--|--0--|--------------|








Let nothing bleed into nothing and do nothing?


Let nothing bleed into nothing and do nothing at all? (2x)





                                                                  


e--------------------------|-------------------------|
B--------------------------|-------------------------|
G--------------------------|-------------------------|
D--------------------------|-------------------------|
A--------------------------|-------------------------|
E--0--0--0---0---0--0--0---|--0--0--0---0---0--0--3/-|



Important: The song above is NOT stored on the Chordie server. The original song is hosted at www.xguitar.com. Chordie works as a search engine and provides on-the-fly formatting. Chordie does not index songs against artists'/composers' will. To remove this song please click here.

This song is displayed as text-only. Transposing and tuning is only available for chordpro-songs.

Login - add to songbook

Rating click stars to rate

Layout
Accuracy

SHARE PAGE  




You need to log in to post comments