Guitar Tabs, Chords and Lyrics


A Pleasant Shade of Grey: Pt. 8    Fates Warning



A PLEASANT SHADE OF GRAY--FATES WARNING
from 1997's "A Pleasant Shade of Gray" album
Metal Blade
Lyrics and music by Jim Matheos

Transcribed by Eric Schlelein
email eric@u.arizona.edu

Part VIII (3:31):
[4/4 time]

e-----|-----|
B-----|-----|
G-----|-----|  -->hold each for 8 measures
D--2--|--2--|
A--2--|--2--|
E--0--|--0--|

e-----|-----|-----|-----|-----|-----|-----|--------|
B-----|-----|-----|-----|-----|-----|-----|--------|
G-----|-----|-----|-----|-----|-----|-----|--------|
D-----|-----|-----|-----|-----|-----|-----|--------|
A-----|-----|-----|-----|-----|-----|-----|--------|
E--0--|--2--|--3--|--5--|--0--|--2--|--3--|--5--7--|

e--------|--------|--------|-------------|--------------------|
B--------|--------|--------|-------------|--------------------|
G--------|--------|--------|-------------|--------------------|
D--------|--------|--------|-------------|----7-9-7-9-10-9-10-|
A--------|--------|--------|----7--9--10-|-10-----------------|
E--0--2--|--3--5--|--7--8--|-10----------|--------------------|

e---------------------|-----------------------|
B---------------------|-----8----8-10-8-10-12-|
G--7----7-9-7-9-11-9--|--11---11--------------|
D----10---------------|-----------------------|
A---------------------|-----------------------|
E---------------------|-----------------------|

e-------8----8-10-8-10--|-12--|
B-10-12---12------------|-----|
G-----------------------|-----|
D-----------------------|-----|
A-----------------------|-----|
E-----------------------|-----|
        -->rest for 11 bars

[7/4 time]           [9/4 time]
e-------------------|-----------------------|
B-------------------|-----------------------|
G-------------------|-----------------------|
D-------------------|-----------------------|
A-7--0--7--5--7--0--|--7--5--7--0--7--7--0--|
E-------------------|-----------------------|

[7/4 time]           [9/4 time]
e-------------------|-----------------------|
B-------------------|-----------------------|
G-------------------|-----------------------|
D-------------------|-----------------------|
A-5--3--5-----5-----|--5-----5--3--5--------|
E----------3-----3--|-----3-----------3--3--|

    -->repeat

        -->classical guitar and piano

e-----------------|---------------------------|
B-0-----0---------|-0-----0-------------------|
G---0-------2-0---|---0-------2-0---------0-2-|
D-----2---2----4--|-----2---2----4-0-2-4------|
A-----------------|---------------------------|
E-----------------|---------------------------|

e-----------------|---------------------------|
B-0-----0---------|-0-----0-------------------|
G---0-------2-0---|---0-------2-0---------0-2-|
D-----2---2----4--|-----2---2----4-0-2-4------|
A-----------------|---------------------------|
E-----------------|---------------------------|

e-----------------|---------------------------|
B-0-----0---------|-0-----0-------------------|
G---0-------2-0---|---0-------2-0---------0-2-|
D-----2---2----4--|-----2---2----4-0-2-4------|
A-----------------|---------------------------|
E-----------------|---------------------------|

e-----------------|----------------------------------|
B-0-----0---------|-0-----0---------------------2-3--|
G---0-------2-0---|---0-------2-0---------0-2-4------|
D-----2---2-----4-|-----2---2----4-0-2-4-------------|
A-----------------|----------------------------------|
E-----------------|----------------------------------|

e--------------------------|--------------------------|
B--------------------------|--------------------------|
G--------------------------|--------------------------|
D----------4--2------------|----------4--2------------|
A-2--4--5--------5--4------|-2--4--5--------5--4------|
E---------------------5--2-|---------------------5--2-|

e--------------------------|--------------------------|
B--------------------------|--------------------------|
G--------------------------|--------------------------|
D----------4--2------------|----------4--2------------|
A-2--4--5--------5--4------|-2--4--5--------5--4------|
E---------------------5--2-|---------------------5--2-|

e-7-----7-----------|-7-----7------------------------|
B---8-------10-8----|---8-------10-8-----------8-10--|
G-----9---9------11-|-----9---9------11-7-9-11-------|
D-------------------|--------------------------------|
A-------------------|--------------------------------|
E-------------------|--------------------------------|

e-7-----7-----------|-7-----7------------------------|
B---8-------10-8----|---8-------10-8-----------8-10--|
G-----9---9------11-|-----9---9------11-7-9-11-------|
D-------------------|--------------------------------|
A-------------------|--------------------------------|
E-------------------|--------------------------------|

e-7-----7-----------|-7-----7------------------------|
B---8-------10-8----|---8-------10-8-----------8-10--|
G-----9---9------11-|-----9---9------11-7-9-11-------|
D-------------------|--------------------------------|
A-------------------|--------------------------------|
E-------------------|--------------------------------|

e-7-----7-----------|-7-----7--------------------------9-10--|
B---8-------10-8----|---8-------10-8-----------8-10-12-------|
G-----9---9------11-|-----9---9------11-7-9-11---------------|
D-------------------|----------------------------------------|
A-------------------|----------------------------------------|
E-------------------|----------------------------------------|

e----------------------|--------------------------------|
B-7-----7--------------|-7-----7------------------------|
G---7-------7-9-7------|---7-------7-9-7-----------7-9--|
D-----9---9--------11--|-----9---9-------11-7-9-11------|
A----------------------|--------------------------------|
E----------------------|--------------------------------|

e----------------------|--------------------------------|
B-7-----7--------------|-7-----7------------------------|
G---7-------7-9-7------|---7-------7-9-7-----------7-9--|
D-----9---9--------11--|-----9---9-------11-7-9-11------|
A----------------------|--------------------------------|
E----------------------|--------------------------------|

e-------------------|------------------------------|
B-------------------|------------------------------|
G---7-9---7-9-7-----|---7-9---7-9-7----7------7-9--|
D-9-----9-------11--|-9-----9-------11---9-11------|
A-------------------|------------------------------|
E-------------------|------------------------------|


e-------------------|-----------------------------------|
B-------------------|-----------------------------8-10--|
G---7-9---7-9-7-----|---7-9---7-9-7----7------7-9-------|
D-9-----9-------11--|-9-----9-------11---9-11-----------|
A-------------------|-----------------------------------|
E-------------------|-----------------------------------|

e-7-----7---------------|-7-----7------------------|
B---8-----8---10-7-8----|---8-----8---10-7-8---7---|
G-----9-----9--------9--|-----9-----9--------9---7-|
D-----------------------|--------------------------|
A-----------------------|--------------------------|
E-----------------------|--------------------------|

e-7-----7---------------|-7-----7-----------------------|
B---8-----8---10-7-8----|---8-----8---10-7-8---7--------|
G-----9-----9--------9--|-----9-----9--------9---7-6----|
D-----------------------|----------------------------7--|
A-----------------------|-------------------------------|
E-----------------------|-------------------------------|

e--------------------------|--------------------------|
B--------------------------|--------------------------|
G--------------------------|--------------------------|
D----------2--4------------|----------2--4------------|
A-2--4--5--------5--4------|-2--4--5--------5--4------|
E---------------------5--2-|---------------------5--2-|

e-------------------|------------------------------|
B-------------------|------------------------------|
G---7-9---7-9-7-----|---7-9---7-9-7----7------7-9--|
D-9-----9-------11--|-9-----9-------11---9-11------|
A-------------------|------------------------------|
E-------------------|------------------------------|

e-------------------|-----------------------------------|
B-------------------|-----------------------------8-10--|
G---7-9---7-9-7-----|---7-9---7-9-7----7------7-9-------|
D-9-----9-------11--|-9-----9-------11---9-11-----------|
A-------------------|-----------------------------------|
E-------------------|-----------------------------------|

e-----------------|---------------------------|
B-0-----0---------|-0-----0-------------------|
G---0-------2-0---|---0-------2-0---------0-2-|
D-----2---2-----4-|-----2---2-----4-0-2-4-----|
A-----------------|---------------------------|
E-----------------|---------------------------|

e-----------------|---------------------------|
B-0-----0---------|-0-----0-------------------|
G---0-------2-0---|---0-------2-0---------0-2-|
D-----2---2-----4-|-----2---2-----4-0-2-4-----|
A-----------------|---------------------------|
E-----------------|---------------------------|

e-7-----7-----------|-7-----7------------------------|
B---8-------10-8----|---8-------10-8-----------8-10--|
G-----9---9------11-|-----9---9------11-7-9-11-------|
D-------------------|--------------------------------|
A-------------------|--------------------------------|
E-------------------|--------------------------------|

e-7-----7-----------|-7-----7--------------------------9-10--|
B---8-------10-8----|---8-------10-8-----------8-10-12-------|
G-----9---9------11-|-----9---9------11-7-9-11---------------|
D-------------------|----------------------------------------|
A-------------------|----------------------------------------|
E-------------------|----------------------------------------|

e----14-15-17--------------------------------------|
B-17----------14-15-17----------12-13--------------|
G----------------------11-12-14-------9-11-12-6-7--|
D--------------------------------------------------|
A--------------------------------------------------|
E--------------------------------------------------|

e-----------------------------------------------7--|
B----7-8-10-------7-8-----0--0-0--0--0-0--0--0-----|
G--9--------6-7-9-----6-7--------------------------|
D--------------------------------------------------|
A--------------------------------------------------|
E--------------------------------------------------|



Important: The song above is NOT stored on the Chordie server. The original song is hosted at www.xguitar.com. Chordie works as a search engine and provides on-the-fly formatting. Chordie does not index songs against artists'/composers' will. To remove this song please click here.

This song is displayed as text-only. Transposing and tuning is only available for chordpro-songs.

Login - add to songbook

Rating click stars to rate

Layout
Accuracy

SHARE PAGE  




You need to log in to post comments