Guitar Tabs, Chords and Lyrics


Archetype   Fear Factory



FEAR FACTORY - ARCHETYPE                              bullet_trip@yahoo.com


Tuning: 7 String Standard   (B E A D G B E)


MAIN
|-----------------------------------------------------------------|
|-----------------------------------------------------------------|
|----------------(0)----------------------------------------------|
|-----------------------------------------------------------------|
|-----------------------------------------------------------------|
|-5-5-7-------7-7-7-------7-7-7-------7-7-7-------7-7-7---7-7-7---|
|-3-3-5-------5-5-5-------5-5-5-------5-5-5-------5-5-5---5-5-5---|



|-----------------------------------------------------------------|
|-----------------------------------------------------------------|
|-----------------------------------------------------------------|
|-----------------------------------------------------------------|
|-----------------------------------------------------------------|
|-7-7-5-------5-5-5-------5-5-5-------5-5-5-------5-5-5---5-5-5---|
|-5-5-3-------3-3-3-------3-3-3-------3-3-3-------3-3-3---3-3-3---|



|-----------------------------------------------------------------|
|-----------------------------------------------------------------|
|----------------(0)----------------------------------------------|
|-----------------------------------------------------------------|
|-----------------------------------------------------------------|
|-5-5-3-------3-3-3-------3-3-3-------3-3-3-------3-3-3---3-3-3---|
|-3-3-1-------1-1-1-------1-1-1-------1-1-1-------1-1-1---1-1-1---|



|-----------------------------------------------------------------|
|-----------------------------------------------------------------|
|-----------------------------------------------------------------|
|-----------------------------------------------------------------|
|-----------------------------------------------------------------|
|-3-3-5-------5-5-5-------5-5-5-------5-5-5-----------------------|
|-1-1-3-------3-3-3-------3-3-3-------3-3-3-------3-3-1-1-3-3-3-3-|
                                                  . . . . . . . .



VERSE
|---------------------------------------------------------------------------|
|---------------------------------------------------------------------------|
|-2-1-1-----------------------1-1-1-------------------------2-1-1---2-1-1---|
  . . .                       . . .                         . . .   . . .


|---------------------------------------------------------------------------|
|---------------------------------------------------------------------------|
|-2-1-1-----------------------1-1-1----------1-1-1----------2-1-1---2-1-1---|
  . . .                       . . .          . . .          . . .   . . .


|---------------------------------------------------------------------------|
|---------------------------------------------------------------------------|
|-2-1-1---1---1-1-1-----------1-1-1----------1-1-1----------2-1-1---2-1-1---|
  . . .   .   . . .           . . .          . . .          . . .   . . .


|---------------------------------------------------------------------------|
|---------------------------------------------------------------------------|
|-2-1-1---1---1-1-1-----------1-1-1----------1-1-1----------2-1-1-1-1-3-3-3-|
  . . .   .   . . .           . . .          . . .          . . . . . . . .





MIDDLE
|---------------------------------------------------------------------------|
|---------------------------------------------------------------------------|
|---------------------------------------------------------------------------|
|-5---3---3---5----------------5---5---3---3---6--------------6---6---8-----|



|---------------------------------------------------------------------------|
|-7---5---5---7----------------7---7---5---5---8--------------8---8---10----|
|-7---5---5---7----------------7---7---5---5---8--------------8---8---10----|
|-5---3---3---5----------------5---5---3---3---6--------------6---6---8-----|



|---------------------------------------------------------------------------|
|-5---7---5---7--------------------5---7---5---8--------------8---8---10----|
|-5---7---5---7--------------------5---7---5---8--------------8---8---10----|
|-3---5---3---5--------------------3---5---3---6--------------6---6---8-----|





CLEAN
|------------------0-------------------------------------------------------------|
|----------------------0----------------------------------0----------------------|
|--------------------------------------------------------------------------------|
|--------------------------------------------------------------------------------|
|-----7--------------------------------------5-----------------------------------|
|--------------------------------------------------------------------------------|
|-5--------------------------------------3---------------------------------------|



|--------------------------------------------------------------------------------|
|------------------0-------------------------------------------------------------|
|----------------------0---------------------------------------------------------|
|-­­­­­­­­­­­­­­-------------------------------------------------------------------------------|
|-----3­­--------------------------------------------------------------------------|
|-----­­---------------------------------------------------------------------------|
|-1---­­------------------------------1---3----------------------------------------|





OUTRO    (???)
|-----------------------------------------------------------------|
|-----------------------------------------------------------------|
|-5---7-----------10----------10------10--------------------------|
|-5---7-----------7-----------7-------7---------------------------|
|-3---5-------5---5-------5---5-------5-----------5-5-3-3-5-5-5-5-|
              .           .                       . . . . . . . .


|-----------------------------------------------------------------|
|-----------------------------------------------------------------|
|-7---7-----------7-----------7-------5---------------------------|
|-7---7-----------7-----------7-------5---------------------------|
|-5---3-------3---3-------3---3-------3-----------3-3-1-1-3-3-3-3-|
              .           .                       . . . . . . . .


|-----------------------------------------------------------------|
|-----------------------------------------------------------------|
|-3---3-----------3-----------3-------3---------------------------|
|-3---3-----------3-----------3-------3---------------------------|
|-1---1-------1---1-------1---1-------1-----------1-1-0-0-1-1-1-1-|
              .           .                       . . . . . . . .



|-----------------------------------------------------------------|
|-----------------------------------------------------------------|
|-3---7-----------7-----------7-------5---------------------------|
|-3---7-----------7-----------7-------5---------------------------|
|-1---3-------3---3-------3---3-------3-----------3-3-1-1-3-3-3-3-|
              .           .                       . . . . . . . .




Important: The song above is NOT stored on the Chordie server. The original song is hosted at www.xguitar.com. Chordie works as a search engine and provides on-the-fly formatting. Chordie does not index songs against artists'/composers' will. To remove this song please click here.

This song is displayed as text-only. Transposing and tuning is only available for chordpro-songs.

Login - add to songbook

Rating click stars to rate

Layout
Accuracy

SHARE PAGE  




You need to log in to post comments