""; ?> Corporate Cloning by Fear Factory - guitar chords, guitar tabs and lyrics - chordie

Corporate Cloning

Fear Factory


FEAR FACTORY - CORPORATE CLONING bullet_trip@yahoo.com
Tuning: B
INTRO |--------------------------------------------------| |--------------------------------------------------| |-3--2--2--2--2--2--2--2--2--2--2--2--2------------| |-1--0--0--0--0--0--0--0--0--0--0--0--0------------| . . . . . . . . . . . . .
|--------------------------------------------------| |--------------------------------------------------| |-3--2--2--2--2--2--2--2--2--2--2--2--3---3---3----| |-1--0--0--0--0--0--0--0--0--0--0--0--1---1---1----| . . . . . . . . . . . . . . .
KICK IN |---------------------------------------------------| |---------------------------------------------------| |---------------------------------------------------| |-1-1-0--0--0--0--0--0--0--1-1-0--0--0--0--0--0--0--| . . . . . . . . . . . . . . . . . .
|---------------------------------------------------| |---------------------------------------------------| |---------------------------------------------------| |-1-1-0--0--0--0--0--0--0--1-1-0--0--0--1---1---1---| . . . . . . . . . . . . . . . . .
(0:25) |-----------------------------------------------------| |-----------------------------------------------------| |-----------------------------------------------------| |-1-1-0--0--0--1-1-0--0--0--1-1-0--0--0--1-1-0--0--0--| . . . . . . . . . . . . . . . . . . . .
|-----------------------------------------------------| |-----------------------------------------------------| |-----------------------------------------------------| |-1-1-0--0--0--1-1-0--0--0--1-1-0--0--0--1---1---1----| . . . . . . . . . . . . . . . . . .
VERSE |--------------------------| |---------------------------| |--------------------------| |---------------------------| |--------------------------| |---------------------------| |-3-3-2--2--2--3--2--------| |-3-3-2--2--2--3---3---3----| . . . . . . . . . . . . . . .
|----------------------------------------------------| |----------------------------------------------------| |----------------------------------------------------| |-3-3-2--2--2--3--2--2--2--3-3-2--2--2--3---3---3----| . . . . . . . . . . . . . . . . .
PRE CHORUS |-----------------------------------------------| |-----------------------------------------------| |-5--4--4--4--4--5--------5--7--7--7--7--8------| |-5--4--4--4--4--5--------5--7--7--7--7--8------| |-3--2--2--2--2--3--------3--5--5--5--5--6------|
CHORUS |---------------------------------------------------------------| |---------------------------------------------------------------| |------------------7--------------------------------7-----------| |------------------7--------------------------------7-----5-----| |------------------5--------------------------------5-----5-----| |-3-3-3-3-3-3-3-3-----------3-3-3-3-3-3-3-3-3-3-3-3-------3-----| . . . . . . . . . . . . . . . . . . . .
|---------------------------------------------------| |------------------0-------------------------0------| |---------------------------------------------------| |-8-----------------------10------------------------| |-8-----------------------10------------------------| |-6------------------------8------------------------|
MIDDLE (3:08) (3:12) |-------------| |--------------------------| |-10-10-10-10-| |-10-10-10-10--9--9--9--9--| |-10-10-10-10-| |-10-10-10-10--9--9--9--9--| |--8--8--8--8-| |--8--8--8--8--7--7--7--7--| . . . . . . . . . . . .
POWER RIFF |-------------------------------------------------| |-------------------------------------------------| |-------------------------------------------------| |-8--7--0--8--9--0--8--7--0--8--9--0--8--7--8--9--|
|-------------------------------------------------| |-------------------------------------10-10-10-10-| |-------------------------------------10-10-10-10-| |-8--7--0--8--9--0--8--7--0--8--9--0--8--8--8--8--| . . . .
|-------------------------------------------------| |-------------------------------------------------| |-------------------------------------------------| |-8--7--0--8--9--0--8--7--0--8--9--0--8--7--8--9--|
|-----------------------------------------------------------------------------| |-------------------------10-10-10-10-9--9--9--9--8--8--8--8--7---7---7---7---| |-------------------------10-10-10-10-9--9--9--9--8--8--8--8--7---7---7---7---| |-8--7--0--8--9--0--8--7--8--8--8--8--7--7--7--7--6--6--6--6--5---5---5---5---| . . . . . . . . . . . . . . . .























variations - click chord images
Transpose chords:
Tuning:
Cool service:
View: Size:
A  A  A
Rating:
Layout:
  • Currently 0/5 Stars.
  • 1
  • 2
  • 3
  • 4
  • 5
 
Accuracy:
  • Currently 3/5 Stars.
  • 1
  • 2
  • 3
  • 4
  • 5
 
click stars to rate
Chordie recommends:
Learn to play songs at Jamplay.com with video guitar lessons
Songbook:
Login to add this song to your songbook
Support the artist
Preview/buy this song
MSN Music
Why this non-profit ad?

 
login to add comments/video/corrections