Chordie logo


Corporate Cloning   Fear Factory



FEAR FACTORY - CORPORATE CLONING                       bullet_trip@yahoo.com


Tuning: B


INTRO
|--------------------------------------------------|
|--------------------------------------------------|
|-3--2--2--2--2--2--2--2--2--2--2--2--2------------|
|-1--0--0--0--0--0--0--0--0--0--0--0--0------------|
  .  .  .  .  .  .  .  .  .  .  .  .  .


|--------------------------------------------------|
|--------------------------------------------------|
|-3--2--2--2--2--2--2--2--2--2--2--2--3---3---3----|
|-1--0--0--0--0--0--0--0--0--0--0--0--1---1---1----|
  .  .  .  .  .  .  .  .  .  .  .  .  .   .   .



KICK IN
|---------------------------------------------------|
|---------------------------------------------------|
|---------------------------------------------------|
|-1-1-0--0--0--0--0--0--0--1-1-0--0--0--0--0--0--0--|
  . . .  .  .  .  .  .  .  . . .  .  .  .  .  .  .


|---------------------------------------------------|
|---------------------------------------------------|
|---------------------------------------------------|
|-1-1-0--0--0--0--0--0--0--1-1-0--0--0--1---1---1---|
  . . .  .  .  .  .  .  .  . . .  .  .  .   .   .



(0:25)
|-----------------------------------------------------|
|-----------------------------------------------------|
|-----------------------------------------------------|
|-1-1-0--0--0--1-1-0--0--0--1-1-0--0--0--1-1-0--0--0--|
  . . .  .  .  . . .  .  .  . . .  .  .  . . .  .  .


|-----------------------------------------------------|
|-----------------------------------------------------|
|-----------------------------------------------------|
|-1-1-0--0--0--1-1-0--0--0--1-1-0--0--0--1---1---1----|
  . . .  .  .  . . .  .  .  . . .  .  .  .   .   .




VERSE
|--------------------------|    |---------------------------|
|--------------------------|    |---------------------------|
|--------------------------|    |---------------------------|
|-3-3-2--2--2--3--2--------|    |-3-3-2--2--2--3---3---3----|
  . . .  .  .  .  .               . . .  .  .  .   .   .


|----------------------------------------------------|
|----------------------------------------------------|
|----------------------------------------------------|
|-3-3-2--2--2--3--2--2--2--3-3-2--2--2--3---3---3----|
  . . .  .  .  .  .  .  .  . . .  .  .  .   .   .




PRE CHORUS
|-----------------------------------------------|
|-----------------------------------------------|
|-5--4--4--4--4--5--------5--7--7--7--7--8------|
|-5--4--4--4--4--5--------5--7--7--7--7--8------|
|-3--2--2--2--2--3--------3--5--5--5--5--6------|




CHORUS
|---------------------------------------------------------------|
|---------------------------------------------------------------|
|------------------7--------------------------------7-----------|
|------------------7--------------------------------7-----5-----|
|------------------5--------------------------------5-----5-----|
|-3-3-3-3-3-3-3-3-----------3-3-3-3-3-3-3-3-3-3-3-3-------3-----|
  . . . . . . . .           . . . . . . . . . . . .


|---------------------------------------------------|
|------------------0-------------------------0------|
|---------------------------------------------------|
|-8-----------------------10------------------------|
|-8-----------------------10------------------------|
|-6------------------------8------------------------|




MIDDLE
(3:08)                 (3:12)
|-------------|        |--------------------------|
|-10-10-10-10-|        |-10-10-10-10--9--9--9--9--|
|-10-10-10-10-|        |-10-10-10-10--9--9--9--9--|
|--8--8--8--8-|        |--8--8--8--8--7--7--7--7--|
   .  .  .  .             .  .  .  .  .  .  .  .



POWER RIFF
|-------------------------------------------------|
|-------------------------------------------------|
|-------------------------------------------------|
|-8--7--0--8--9--0--8--7--0--8--9--0--8--7--8--9--|



|-------------------------------------------------|
|-------------------------------------10-10-10-10-|
|-------------------------------------10-10-10-10-|
|-8--7--0--8--9--0--8--7--0--8--9--0--8--8--8--8--|
                                      .  .  .  .


|-------------------------------------------------|
|-------------------------------------------------|
|-------------------------------------------------|
|-8--7--0--8--9--0--8--7--0--8--9--0--8--7--8--9--|



|-----------------------------------------------------------------------------|
|-------------------------10-10-10-10-9--9--9--9--8--8--8--8--7---7---7---7---|
|-------------------------10-10-10-10-9--9--9--9--8--8--8--8--7---7---7---7---|
|-8--7--0--8--9--0--8--7--8--8--8--8--7--7--7--7--6--6--6--6--5---5---5---5---|


Important: The song above is NOT stored on the Chordie server. The original song is hosted at www.xguitar.com. Chordie works as a search engine and provides on-the-fly formatting. Chordie does not index songs against artists/composers will. To remove this song please click here.

This song is displayed as text-only. Transposing and tuning is only available for chordpro-songs.

Login - add to songbook

Rating click stars to rate

Layout
Accuracy

SHARE PAGE  




You need to log in to post comments