Guitar Tabs, Chords and Lyrics


Dragged Down by the Weight of Existence   Fear Factory



Band: Fear Factory
CD: Concrete
Song: Dragged Down By The Weight Of Existence

Tune B standard

Riff1
|-----------------|------------------------|
|-----------------|------------------------|
|-----------------|------------------------|
|-----------------|------------------------|
|-2-----5--3-4----|---------2--------------|
|-0-000-3--1-2----|-0-000-0-0--0-0-0-0-----|
    ***             * ***      * * * *

Riff2
|--------------------------------|
|--------------------------------|
|--------------------------------|
|--------------6-----------------|
|-2-----5------4-----------------|
|-0-0-0-3-0-0----0-0-1h3-3h4-----|
    * *   * *    * *

Riff3
|----------------------------------------------------|
|----------------------------------------------------|
|-----------9-----------8-----------7----------------|
|-----------x-----------x-----------x----------------|
|-----------7-----------6-----------5----------------|
|-000-000-0---000-000-0---000-000-0---0000011-133----|
  *** *** *   *** *** *   *** *** *   ******* ***

Riff4
|-------------------------------------|
|-------------------------------------|
|-------------------------------------|
|-------------------------------------|
|-3----------5----3-2-2-2-3-2-2-2-----|
|-------4---------1-0-0-0-1-0-0-0-----|
                  * * * * * * * *



Important: The song above is NOT stored on the Chordie server. The original song is hosted at www.xguitar.com. Chordie works as a search engine and provides on-the-fly formatting. Chordie does not index songs against artists/composers will. To remove this song please click here.

This song is displayed as text-only. Transposing and tuning is only available for chordpro-songs.

Login - add to songbook

Rating click stars to rate

Layout
Accuracy

SHARE PAGE  




You need to log in to post comments