Guitar Tabs, Chords and Lyrics


Damaged   Fear Factory



Fear Factory
Damaged
Digimortal


Riff A:
E|----------------------------|    |---------------------------|
B|----------------------------|    |---------------------------|
G|----------------------------|    |---------------------------|
D|----------------------------| X3 |---------------------------|
A|----------------------------|    |---------------------------|
E|----------------------------|    |---------------------------|
A|----2223-2-3-3--2-3--2-3----|    |----2223-2-3--222-222-22---|
PM    \\__________________/              \\__________________/


Riff B:
E|----------------------------|    |---------------------|
B|----------------------------|    |---------------------|
G|----------------------------|    |---------------------|
D|----------------------------| X3 |---------------------|
A|----------------------------|    |---------------------|
E|----------------------------|    |---------------------|
A|----2223-2-3-3--2-3--2-3----|    |----2223-2-3--222----|
PM   \\__________________/               \\___________/


Riff C:
E|-----------------------|    |------------------------|
B|-----------------------|    |------------------------|
G|-----------------------|    |------------------------|
D|-----------------------| X3 |------------------------|
A|-----------------------|    |------------------------|
E|----4-3-3--------------|    |----4-3-3---------------|
A|----4-3-3--2223-2-3----|    |----4-3-3--222-222-2----|
PM          \\______/                      \\_______/


Riff D:
E|-----------------------|    |-----------------------|
B|-----------------------|    |-----------------------|
G|-----------------------|    |-----------------------|
D|-----------------------| X3 |-----------------------|
A|-----------------------|    |-----------------------|
E|----4-3-3--------------|    |-4-3-3-----------------|
A|----4-3-3--2223-2-3----|    |-4-3-3--222-22-2-2-2-2-|
PM           \\______/                  \\____________/


Riff E:
E|------------------------|    |--------------|
B|------------------------|    |--------------|
G|------------------------|    |--------------|
D|------------------------| X3 |--------------|
A|------------------------|    |--------------|
E|------------------------|    |--------------|
A|----2-2--0-0--0-0--2----|    |2-2--0-0--000-|
PM  \\______________/            \\___________/


Riff F:
E|--------------------|
B|--------------------|
G|--------------------|
D|--------------------|
A|--------------------|
E|---2p0--------------|
A|---2p0--0-0--0-0--2-|
PM        \\_________/


Riff G:
E|--------------------------------------------------------------------------|
B|--------------------------------------------------------------------------|
G|--------------------------------------------------------------------------|
D|--------------------------------------------------------------------------|
A|---4-4-4-4-4-4-4-4--8-8-8-8-8-8-8-8--7-7-7-7-7-7-7-7--5-5-5-5--8-8-8-8----|
E|---4-4-4-4-4-4-4-4--8-8-8-8-8-8-8-8--7-7-7-7-7-7-7-7--5-5-5-5--8-8-8-8----|
A|---4-4-4-4-4-4-4-4--8-8-8-8-8-8-8-8--7-7-7-7-7-7-7-7--5-5-5-5--8-8-8-8----|

E|--------------------------------------------------------------------------|
B|--------------------------------------------------------------------------|
G|--------------------------------------------------------------------------|
D|--------------------------------------------------------------------------|
A|----4-4-4-4-4-4-4-4--8-8-8-8-8-8-8-8--7-----7-----7--3-3-3-3---7-7-7-7----|
E|----4-4-4-4-4-4-4-4--8-8-8-8-8-8-8-8--7-7-7-7-7-7-7--3-3-3-3---7-7-7-7----|
A|----4-4-4-4-4-4-4-4--8-8-8-8-8-8-8-8--7-7-7-7-7-7-7--3-3-3-3---7-7-7-7----|
PM                                        \\_/   \\_/    \\_____/

Riff H:
|----------------------|    |---------|------------------|
|----------------------|    |---------|------------------|
|----------------------|    |---------|------------------|
|----------------------| X3 |---------|-------------6----|
|----------------------|    |---------|------7-----------|
|---4-3-3--------------|    |----4----|------------------|
|---4-3-3--2223-2-3----|    |----4----|---5-----5-7----7-|
PM         \\______/

Riff I:
E|------------------------|
B|------------------------|
G|------------------------|
D|------------------------|
A|------------------------|
E|------------------------|
A|----2-2--0-0--0-0--2----|
PM    \\______________/

Riff J:
E|----------------------|
B|----------------------|
G|----------------------|
D|--------------6-------|
A|-------7--------------|
E|----------------------|
A|----5-----5-7----7----|

Riff K:
E|--------------------------------------|
B|--------------------------------------|
G|--------------------------------------|
D|--------------------------------------|
A|----5-----5-----5--7-7-7-7-7-7-7-7----|
E|----5-5-5-5-5-5-5--7-7-7-7-7-7-7-7----|
A|----5-5-5-5-5-5-5--7-7-7-7-7-7-7-7----|
PM     \\_/   \\_/    \\_________/

Riff L:
E|------------------------------------------|
B|------------------------------------------|
G|------------------------------------------|
D|------------------------------------------|
A|------------------------------------------|
E|----4-3--4---------------4-3--------------|
A|----4-3--4--3-4--3-4--3--4-3--4--3-4-3----|




Riff M:
E|----------------------------------------|
B|----------------------------------------|
G|----------------------------------------|
D|----------------------------------------|
A|----------------------------------------|
E|---4-3--4---------------3-4-4--3-4-4--3-|
A|---4-3--4--3-4--3-4--3--3-4-4--3-4-4--3-|
PM                        \\_____________/

Damaged

Riff Order:

Riff A
Riff B

1 Sec. Pause

Riff C
Riff D
Riff E
Riff F X4
Riff G
Riff C
Riff H
Riff I X5
Riff F X4
Riff G
Riff C X2
Riff J X3
Riff K

18 Sec. Pause

Riff C X2
Riff L X3


Important: The song above is NOT stored on the Chordie server. The original song is hosted at www.xguitar.com. Chordie works as a search engine and provides on-the-fly formatting. Chordie does not index songs against artists'/composers' will. To remove this song please click here.

This song is displayed as text-only. Transposing and tuning is only available for chordpro-songs.

Login - add to songbook

Rating click stars to rate

Layout
Accuracy

SHARE PAGE  




You need to log in to post comments