Guitar Tabs, Chords and Lyrics


Crisis   Fear Factory



Band:  Fear Factory
Album:  Soul Of A New Machine
Song:  Crisis

This should all be right.  Note: *=Natural Harmonic.
Any comments, email me at twiggyramirez39@Hotmail.com
Tuning:  BEADGBE

Intro:
    *                             *
E|--3-----------------------------3-----------------
B|--3-----------------------------3-----------------
G|--3-----------------------------3-----------------
D|--------------------------------------------------
A|--------------------------------------------------
E|-----2-2-2--2-2-2--2-2-2--2-2---------------------
B|-----0-0-0--0-0-0--0-0-0--0-0---------------------

Verse:
                                                  *
E|------------------------------------------------3-
B|------------------------------------------------3-
G|------------------------------------------------3-
D|--------------------------------------------------
A|--------------------------------------------------
E|--2-2-2--------2-2-2--------2-2-2--------2-2-2----
B|--0-0-0-0-0-0--0-0-0-0-0-0--0-0-0-0-0-0--0-0-0----
          PM___|       PM___|       PM___|

Pre Chorus:

E|--------------------------------------------------
B|--------------------------------------------------
G|--------------------------------------------------
D|--------------------------------------------------
A|--------------------------------------------------
E|--2-2-3-2--2-2-3-2--------------------------------
B|--0-0-1-0--0-0-1-0--------------------------------
PM__________________|

Chorus:
                            1__________2____________
E|-|---------------------|-|-----------|----------|-
B|-|---------------------|-|-----------|----------|-
G|-|---------------------|-|-----------|----------|-
D|0|---------------------|0|-----------|----------|-
A|0|---------------------|0|-----------|----------|-
E|-|2-3-2-3-2--3-2-3-2-2-|-|--2-2-2-2--|--2-2-2-2-|-
B|-|0-1-0-1-0--1-0-1-0-0-|-|--0-0-0-0--|--0-0-0-0-|-

Interlude:

E|--------------------------------------------------
B|--------------------------------------------------
G|--------------------------------------------------
D|--------------------------------------------------
A|----5---5-----------------------------------------
E|--2-2-5-3-----------------------------------------


Important: The song above is NOT stored on the Chordie server. The original song is hosted at www.xguitar.com. Chordie works as a search engine and provides on-the-fly formatting. Chordie does not index songs against artists'/composers' will. To remove this song please click here.

This song is displayed as text-only. Transposing and tuning is only available for chordpro-songs.

Login - add to songbook

Rating click stars to rate

Layout
Accuracy

SHARE PAGE  




You need to log in to post comments