Chordie logo

Suffer Age   Fear Factory



Band: Fear Factory
CD: Concrete
Song: Suffer Age

Tune B Standard

Riff1 (Intro Parts)

|-0-0-0-0-0-0-0-0-|-0-0-0-0-0-0-0-0----|-0-0-0-0---0-0-0-0---|
|-5-5-5-5-5-5-5-5-|-5-5-5-5-4-4-4-4----|-7-7-7-7---8-8-8-8---|
|-----------------|--------------------|---------------------|
|-----------------|--------------------|---------------------|
|-----------------|--------------------|---------------------|
|-----------------|--------------------|---------------------|


Riff2
|---------------------|------------------------|
|---------------------|------------------------|
|---------------4--3--|------------------------|
|---------------------|------------------------|
|-3-3-3-3-2-----------|--3-3-3-3-2--3-3-3-3-2--|
|-1-1-1-1-0-----------|--1-1-1-1-0--1-1-1-1-0--|
  * * * *                * * * *    * * * *

|----------------------------------------------|
|----------------------------------------------|
|----------------------------------------------|
|-9-9-9-9-9-9-9-9--9--9--9--9--9--9--9--9------|
|------------------10-10-10-10-10-10-10-10-----|
|----------------------------------------------|
  * * * * * * * * * * * * * * * * * * * * *

|----------------------------------------------|
|----------------------------------------------|
|-7-7-7-7-7-7-7-7--7--7--7--7--7--7--7--7------|
|---------------10-10-10-10-10-10-10-10-10-----|
|----------------------------------------------|
|----------------------------------------------|
  * * * * * * * * * * * * * * * * * * * * *

Riff3
|---|--------------------------|------------|
|---|--------------------------|------------|
|---|--------------------------|------------|
|---|--------------------------|------------|
|-2-|--------777-6-------777---|-3/7/8------|
|-0-|-0000--------00000--------|-1/5/6------|


Riff4
|----------------------|
|----------------------|
|----------------------|
|----------------------|
|-7/-8-----5/-8--------|
|-5/-6-0-0-3/-6-0-0----|
       * *      * *

Riff5

|-----------------|
|-----------------|
|-----------------|
|-----------------|
|-----4-----3-----|
|-000-2-000-1-----|
  ***   ***

Riff6
G1                               G2
|------------------------------|-------------------------------|
|------------------------------|-------------------------------|
|-5-----7/8\\7--4------8-----7--|---------------------8-----7---|
|------------------------------|--2------------1---------------|
|-3-000-5/6\\5--2--000-6-000-5--|--3-0-0-5h6p5--2-000-6-000-5---|
|------------------------------|-------------------------------|

    ***           ***   ***         * *          ***   ***

Ending Riff

|---------------|
|---------------|
|---------------|
|---------------|
|-3-8-2---------|
|-1-6-0---------|



Important: The song above is NOT stored on the Chordie server. The original song is hosted at www.xguitar.com. Chordie works as a search engine and provides on-the-fly formatting. Chordie does not index songs against artists/composers will. To remove this song please click here.

This song is displayed as text-only. Transposing and tuning is only available for chordpro-songs.

Login - add to songbook

Rating click stars to rate

Layout
Accuracy

SHARE PAGE  



You need to log in to post comments