Child in You

Feeder

G: -------

D: -------
A: -------
E: -------
E: ----------------------------------------------------------------
B: ----12-------12--10-------12------12--10-------8-----8---10-----
G: ----------------------------------------------------------------
D: ----------------------------------------------------------------
A: -12-----12-12--12------12----12-12--12------\8---8-8--/10---/12-
E: --------------------12-------------------0----------------------
E: -------------------------------------------------------------------
B: ----12-------12--10-------12------12--10-------8(8)8(8)-8---10-----
G: -------------------------------------------------------------------
D: -------------------------------------------------------------------
A: -12-----12-12--12------12----12-12--12------\8---8--8----/10--/12--
E: --------------------12-------------------0-------------------------
E: -----------------------------------------------------------------
B: ----12-------12--10-------12------12--10-----(8)-8----8---10-----
G: -----------------------------------------------------------------
D: -----------------------------------------------------------------
A: -12-----12-12--12------12----12-12--12------\8----8-8--/10---/12-
E: --------------------12-------------------0-----------------------
E: ------------------------------------------
B: ----12-------12(10)-10---------8----7-----
G: ------------------------------------------
D: ------------------------------------------
A: -12-----12-12---12--------/8----8-8--/10--
E: -----------------------0------------------

 BbmG#mCmF#mDm
E: --10---8---12---6---14---
B: --10---8---12---6---14---
G: --10---8---12---6---14---
D: -------------------------
A: -------------------------
E: -------------------------


 BbmCmG#m
 Close your eyes and drift away to someplace new
 BbmG#mBbmCmDm
 Where the skies are blue brings back the child in you 
 BbmCmBbmG#m
 Cos' I know it feels, this hurt it can't escape
 BbmG#mF#m
 It's all right…its ok

There is a constant E: -12p10h12p10- solo going on thru the first three
lines in this chorus

E: ----------------------------------------------------------------
B: ----12-------12--10-------12------12--10-------8-----8---10-----
G: ----------------------------------------------------------------
D: ----------------------------------------------------------------
A: -12-----12-12--12------12----12-12--12------\8---8-8--/10---/12-
E: --------------------12-------------------0----------------------
E: -------------------------------------------------------------------
B: ----12-------12--10-------12------12--10-------8(8)----8----10-----
G: -------------------------------------------------------------------
D: -------------------------------------------------------------------
A: -12-----12-12--12------12----12-12--12------\8---8--8----/10--/12--
E: --------------------12-------------------0-------------------------
E: -----------------------------------------------------------------
B: ----12-------12--10-------12------12--10--------8-----8---10(10)-
G: -----------------------------------------------------------------
D: -----------------------------------------------------------------
A: -12-----12-12--12------12----12-12--12------\8----8-8--/10---/12-
E: --------------------12-------------------0-----------------------
E: ----------------------------------------------------------------
B: ----12-------12--10-------12------12--10-------8-----8---10-----
G: ----------------------------------------------------------------
D: ----------------------------------------------------------------
A: -12-----12-12--12------12----12-12--12------\8---8-8--/10---/12-
E: --------------------12-------------------0----------------------
E: ------------------------------------
B: ----12-------12--10------8----7-----
G: ------------------------------------
D: ------------------------------------
A: -12-----12-12--12----/8----8-8--/10-
E: ------------------------------------


2nd Chorus: same as 1st chorus except last line is played twice, same
chords though but I can't figure out the solo. Please help!!!

Bridge:

Pretty Much The Same Timing And Chords As Chorus But These Lyrics:

 BbmCmG#mBbmBbmG#mBbmCmDm
          Look at the star in you,           Look at the star in you,
*Bbm G#m Bbm Cm Bbm G#m
Look at the star in you

* = a little solo comes in here playing E: -21-21-21-21-

Outro:

E: ----------------------------------------------------------------
B: ----12-------12--10-------12------12--10-------8-(8)-8---10-----
G: ----------------------------------------------------------------
D: ----------------------------------------------------------------
A: -12-----12-12--12------12----12-12--12------\8---8-8--/10---/12-
E: --------------------12-------------------0----------------------
E: --------------------------------------------------------------------
B: ----12-------12--10-------12------12--10-------8(8)----8-----10-----
G: --------------------------------------------------------------------
D: --------------------------------------------------------------------
A: -12-----12-12--12------12----12-12--12------\8---8---8----/10--/12--
E: --------------------12-------------------0--------(8)---------------
E: --------------------------------------------------------
B: ----12-------12--10-------12------12--10---------8------
G: --------------------------------------------------------
D: --------------------------------------------------------
A: -12-----12-12--12------12----12-12--12----/(8)8-----8---
E: --------------------12-------------------0------------0-



Bbm Cm Dm F#m G#m
variations - click chord images
Transpose chords:
Tuning:
Cool service:
View: Size:
A  A  A
Rating:
Layout:
  • Currently 4.5/5 Stars.
  • 1
  • 2
  • 3
  • 4
  • 5
 
Accuracy:
  • Currently 2.8/5 Stars.
  • 1
  • 2
  • 3
  • 4
  • 5
 
click stars to rate
Chordie recommends:
Check out JamPlay.com for online video guitar lessons
Songbook:
Login to add this song to your songbook
Support the artist
Preview/buy this song
MSN Music
Why this non-profit ad?

 
login to add comments/video/corrections