Guitar Tabs, Chords and Lyrics


World Asleep  Feeder

E|-------------------------------------------------|


B|-------------------------------------------------|


G|-------------------------------------------------|

D|-------------------------------------------------|
A|-------------------------------------------------|
D|--0--0-0-0-0-10--0-0-0-0-9--0-0-0-0--8--8-8-8-7--|
    [D]   [G/B]    [C9]   [F5]                                                                  
E|--2--3---3----|
B|--3--3---3----|
G|--2--0---0----|
D|--0--0---2--3-|
A|--0--2---3--3-|
D|--0---------3-|

[D]See, see what[G/B] I con[C9]ceal
[D]Cover me with [G/B]ange[C9]ls wings[F5]
[D]Breath the [G/B]air I[C9] breath
[D]Suffocate the [G/B]world [C9]asleep
GUITAR 2: Plays a different idea at end of each vocal line:

First/Third time:

E|----------------------------------------------------------------------|
B|----------------------------------------------------------------------|
G|--5-5-5-5-5-5--7-7-7-7-7-7--9-9-9-9-9-9--12-12-12-12-12-12----11~~~~~-|
D|----------------------------------------------------------------------|
A|--3-3-3-3-3-3--5-5-5-5-5-5--7-7-7-7-7-7--10-10-10-10-10-10------------|
D|----------------------------------------------------------------------|


Second/Fourth time:

E|------------------------------------------------------|
B|------------------------------------------------------|
G|--5-5-5-5-5-5--4-4-4-4-4-4--2-2-2-2-2-2---------------|
D|-----------------------------------------3-3-3-3-3-3--|
A|--3-3-3-3-3-3--2-2-2-2-2-2--0-0-0-0-0-0---------------|
D|-----------------------------------------3-3-3-3-3-3--|


After chorus there is this turnaround:

E|-----------------|
B|-----------------|
G|-----------------|
D|----------10-12--|
A|-----------------|
D|--0-0-0-0-10-12--|


Then back into the verse riff whilst one guitar holds fret 12 of the fourth
string

SOLO:

FIRSTLY OVER VERSE RIFF:

E|---------------------|
B|---------------------|
G|--12b--11~~----------|
D|-------------12--10--|
A|---------------------|
D|---------------------|


THEN THE BACKING CHANGES TO CHUG E5: PLAY AROUND THESE NOTES:

E|----------------------|
B|----------------------|
G|----------------------|
D|----------------------|
A|--12--11--12--14--17--|
D|----------------------|


INTERLUDE: CLEAN

E|-------------------------------|
B|-------------------------------|
G|-------0------0------0------0--|
D|----14------0-----14------0----|
A|--15-----14-----0------14------|
D|-------------------------------|


WITH DISTORTION:

E|----------------------------------------------------|
B|----------------------------------------------------|
G|----------------------------------------------------|
D|---------------------------------------------3-3-3--|
A|--------------3h-5------------3h-5-----------3-3-3--|
D|--0--0-0-0-0--0--0---0-0-0-0--0--0--0-0-0-0--3-3-3--|


Important: The song above is NOT stored on the Chordie server. The original song is hosted at www.xguitar.com. Chordie works as a search engine and provides on-the-fly formatting. Chordie does not index songs against artists'/composers' will. To remove this song please click here.

Text color:
Chord color:
Chord grids: 
Font size:    
Page size: 

C9 D F5 G/B
variations - click chord images

Login - add to songbook

Transpose chords

Tuning

Rating click stars to rate

Layout
Accuracy

SHARE PAGE  




You need to log in to post comments