Guitar Tabs, Chords and Lyrics


All My Fault    Fenix Tx



Fenix Tx - All My Fault
Standard Tuning

Verses/Intro: (each chord played a bunch of time and sometimes palm muted)
|------------------------------------------------------------------------|
|------------------------------------------------------------------------|
|--7---------------------------------------------------------------------|
|--7------------5-------------7------------------------------------------|
|--5------------5-------------7------------------------------------------|
|---------------3-------------5------------------------------------------|

Pre-Chorus:
|------------------------------------------------------------------------|
|------------------------------------------------------------------------|
|--4-----------7-7--9-9-9--11-11-11--12-12-12--11-11-11-9-9-9--6-6-------|
|--4-----5-----x-x--x-x-x--x--x--x---x--x--x---x--x--x--x-x-x--x-x-------|
|--2-----5-----5-5--7-7-7--9--9--9---10-10-10--9--9--9--7-7-7--4-4-------|
|--------3---------------------------------------------------------------|

Chorus:
|------------------------------------------------------------------------|
|------------------------------------------------------------------------|
|--7------------------------------------------------7-6-2--2-------------|
|--7----------------------------5-------------------7-6-2--2-------------|
|--5--5--5-5-5-5--5--5--5-5-5-5-5-------------------5-4-0--0--0-0-0-0----|
|-------------------------------3--3--3-3-3-3--3-3-----------------------|

|------------------------------------------------------------------------|
|------------------------------------------------------------------------|
|-------7-6-4------------------------------------------------------------|
|-------7-6-4---------------5------7-------------------------------------|
|-0-0---5-4-2--2--2-2-2-2---5------7-------------------------------------|
|---------------------------3-3-3--5-5-5---------------------------------|

Solo:
|---------------5--------------------------------------------------------|
|----5-7-8--7-8----8-7-8--8-7h8p7-5--------5---5-------------------------|
|--7--------------------------------7-6-7----7---7-6h7-6---9-6-7-6--8-7--|
|------------------------------------------------------------------------|
|------------------------------------------------------------------------|
|------------------------------------------------------------------------|

|-------------------------------------------------------------9-9-9------|
|-8/10-8h10-10-8-10\8-7h8-7\5---------10---8--------10-10-10-------------|
|-----------------------------7p6-7p6----7------/12----------------------|
|------------------------------------------------------------------------|
|------------------------------------------------------------------------|
|------------------------------------------------------------------------|

|-10-10-10--12-12-12---9h10p9-----------------------------------5---------|
|-----------------------------12-10---10p8-10p8--7h8-7\5----------8-7/8-8-|
|--------------------------------------------------------7p6-7------------|
|-------------------------------------------------------------------------|
|-------------------------------------------------------------------------|
|-------------------------------------------------------------------------|

|------------------------------------------------------------------------|
|-8/10-10-/12-10-8----10p8-7-8p7-----------------------------------------|
|--------------------------------9\7-7-----7-7-7-7\----------------------|
|------------------------------------------x-x-x-x-----------------------|
|------------------------------------------5-5-5-5\----------------------|
|------------------------------------------------------------------------|

tabbed by zipztabs.com


Important: The song above is NOT stored on the Chordie server. The original song is hosted at www.xguitar.com. Chordie works as a search engine and provides on-the-fly formatting. Chordie does not index songs against artists'/composers' will. To remove this song please click here.

This song is displayed as text-only. Transposing and tuning is only available for chordpro-songs.

Login - add to songbook

Rating click stars to rate

Layout
Accuracy

SHARE PAGE  




You need to log in to post comments