Guitar Tabs, Chords and Lyrics


Apple Pie Cowboy Toothpaste    Fenix Tx



fenix tx
apple pie cowboy toothpaste
Intro:
e|-------------------------------------------------------------------------
B|-------------------------------------------------------------------------
G|-5-5-5-5-5-5-5-5-----------------7-7-7-7-7-7-7-7-10-10-10-10-10-10-10-10-
D|-5-5-5-5-5-5-5-5-5-5-5-5-5-5-5-5-7-7-7-7-7-7-7-7-10-10-10-10-10-10-10-10-
A|-3-3-3-3-3-3-3-3-5-5-5-5-5-5-5-5-5-5-5-5-5-5-5-5--8--8--8--8--8--8--8--8-
E|-----------------3-3-3-3-3-3-3-3-----------------------------------------

e|-----------------------------------------------------------------
B|-----------------------------------------------------------------
G|-5-5-5-5-5-5-5-5-----------------7-7-7-7-7-7-7-7-----------------
D|-5-5-5-5-5-5-5-5-5-5-5-5-5-5-5-5-7-7-7-7-7-7-7-7-3-3-3-3-3-3-3-3-
A|-3-3-3-3-3-3-3-3-5-5-5-5-5-5-5-5-5-5-5-5-5-5-5-5-3-3-3-3-3-3-3-3-
E|-----------------3-3-3-3-3-3-3-3-----------------1-1-1-1-1-1-1-1-

e|-------------------------------------------------------------------------------
B|-------------------------------------------------------------------------------
G|-------------------------------------------------------------------------------
D|-----5------5----5-------------------------7------7----7------10------10----10-
A|-3-3----3-3----3--------5------5----5--5-5----5-5----5----8-8-----8-8-----8----
E|--------------------3-3----3-3----3--------------------------------------------
PM_______________________________________________________________________________

e|----------------------------------------------------------------------------------
B|----------------------------------------------------------------------------------
G|----------------------------------------------------------------------------------
D|-----5------5----5-------------------------7------7----7-------------------3-3----
A|-3-3----3-3----3--------5------5----5--5-5----5-5----5--------3-----3---3--3-3----
E|--------------------3-3----3-3----3-----------------------1-1---1-1---1----1-1....
PM__________________________________________________________________________________

e|------------------------------------------------------------------------
B|------------------------------------------------------------------------
G|-5--7--9-9-9-9--7--9--10-10-10-10--9--10--12-12-12-12--10--9--7--5--4-4-
D|-x--x--x-x-x-x--x--x---x--x--x--x--x---x---x--x--x--x---x--x--x--x--x-x-
A|-3--5--7-7-7-7--5--7---8--8--8--8--7---8--10-10-10-10---8--7--5--3--2-2-
E|------------------------------------------------------------------------

e|---------------------------------------------------------------------------------------
B|---------------------------------------------------------------------------------------
G|-5--7--9-9-9-9--7--9--10-10-10-10--9--10--12-12-12-12--9--10-10-10-10--10--12-12-12-12-
D|-x--x--x-x-x-x--x--x---x--x--x--x--x---x---x--x--x--x--x---x--x--x--x---x---x--x--x--x-
A|-3--5--7-7-7-7--5--7---8--8--8--8--7---8--10-10-10-10--7---8--8--8--8---8--10-10-10-10-
E|---------------------------------------------------------------------------------------

e|-----------------------------|
B|-----------------------------|
G|-5-5-5-5-5-5-----------------|
D|-5-5-5-5-5-5--3-3-3--5-5-5-5-|
A|-3-3-3-3-3-3--3-3-3--5-5-5-5-|
E|--------------1-1-1--3-3-3-3-|
PM_____________________________

Verse:
e|-----------------------------------------------------|
B|-----------------------------------------------------|
G|-5-5-5-5-5-5---------------7-7-7-7-7-7---------------|(2x)
D|-5-5-5-5-5-5--5-5-5-5-5-5--7-7-7-7-7-7--3-3-3-3-3-3--|
A|-3-3-3-3-3-3--5-5-5-5-5-5--5-5-5-5-5-5--3-3-3-3-3-3--|
E|--------------3-3-3-3-3-3---------------1-1-1-1-1-1--|

Chorus:
e|-----------------------------------------------------|
B|-----------------------------------------------------|
G|-5-5-5-5-5-5---------------7-7-7-7-7-7---------------|(2x)
D|-5-5-5-5-5-5--5-5-5-5-5-5--7-7-7-7-7-7--3-3-3-3-3-3--|
A|-3-3-3-3-3-3--5-5-5-5-5-5--5-5-5-5-5-5--3-3-3-3-3-3--|
E|--------------3-3-3-3-3-3---------------1-1-1-1-1-1--|

Post-Chorus:
e|---------------------------|
B|---------------------------|(4x)
G|-5-5-5-5-5-5---------------|
D|-5-5-5-5-5-5--x-x-3--x-x-5-|
A|-3-3-3-3-3-3--x-x-3--x-x-5-|
E|--------------x-x-1--x-x-3-|
PM____________________________

Verse:
e|-----------------------------------------------------|
B|-----------------------------------------------------|
G|-5-5-5-5-5-5---------------7-7-7-7-7-7---------------|(2x)
D|-5-5-5-5-5-5--5-5-5-5-5-5--7-7-7-7-7-7--3-3-3-3-3-3--|
A|-3-3-3-3-3-3--5-5-5-5-5-5--5-5-5-5-5-5--3-3-3-3-3-3--|
E|--------------3-3-3-3-3-3---------------1-1-1-1-1-1--|

Chorus:
e|-----------------------------------------------------|
B|-----------------------------------------------------|
G|-5-5-5-5-5-5---------------7-7-7-7-7-7---------------|(2x)
D|-5-5-5-5-5-5--5-5-5-5-5-5--7-7-7-7-7-7--3-3-3-3-3-3--|
A|-3-3-3-3-3-3--5-5-5-5-5-5--5-5-5-5-5-5--3-3-3-3-3-3--|
E|--------------3-3-3-3-3-3---------------1-1-1-1-1-1--|

Post-Chorus:
e|---------------------------|
B|---------------------------|(4x)
G|-5-5-5-5-5-5---------------|
D|-5-5-5-5-5-5--x-x-3--x-x-5-|
A|-3-3-3-3-3-3--x-x-3--x-x-5-|
E|--------------x-x-1--x-x-3-|
PM____________________________

Bridge:
e|------------------------------------------------------------------------
B|------------------------------------------------------------------------
G|-5--7--9-9-9-9--7--9--10-10-10-10--9--10--12-12-12-12--10--9--7--5-5-5--
D|-x--x--x-x-x-x--x--x---x--x--x--x--x---x---x--x--x--x---x--x--x--x-x-x--
A|-3--5--7-7-7-7--5--7---8--8--8--8--7---8--10-10-10-10---8--7--5--3-3-3--
E|------------------------------------------------------------------------

e|---------------------------------------------------------------------------------------|
B|---------------------------------------------------------------------------------------|
G|-5--7--9-9-9-9--7--9--10-10-10-10--9--10--12-12-12-12--9--10-10-10-10--10--12-12-12-12-|
D|-x--x--x-x-x-x--x--x---x--x--x--x--x---x---x--x--x--x--x---x--x--x--x---x---x--x--x--x-|
A|-3--5--7-7-7-7--5--7---8--8--8--8--7---8--10-10-10-10--7---8--8--8--8---8--10-10-10-10-|
E|---------------------------------------------------------------------------------------|

Riff: Right BEFORE Gangsta Rap.
e|----------------------------|
B|----------------------------|
G|-5--7--9----5--7--9----5----|
D|-5--7--9----5--7--9----5----|
A|-3--5--7----3--5--7----3----|
E|----------------------------|

Bridge: Right AFTER Gangsta Rap.  Play (4x)   then  play this.
e|---------------------------------------------|-----------------------|
B|---------------------------------------------|-----------------------|
G|-5-5-5-5-----------7--------------------7--6-|-5----5----5----5------|
D|-5-5-5-5--5-5-5-5--7--3-3-3-3--5-5-5-5--7--6-|-5----5----5----5----5-|
A|-3-3-3-3--5-5-5-5--5--3-3-3-3--5-5-5-5--5--4-|-3----3----3----3----5-|
E|----------3-3-3-3-----1-1-1-1--3-3-3-3-------|---------------------3-|

Chorus:
e|-----------------------------------------------------|
B|-----------------------------------------------------|
G|-5-5-5-5-5-5---------------7-7-7-7-7-7---------------|(8x)
D|-5-5-5-5-5-5--5-5-5-5-5-5--7-7-7-7-7-7--3-3-3-3-3-3--|
A|-3-3-3-3-3-3--5-5-5-5-5-5--5-5-5-5-5-5--3-3-3-3-3-3--|
E|--------------3-3-3-3-3-3---------------1-1-1-1-1-1--|

Post-Chorus:
e|---------------------------|
B|---------------------------|(4x)
G|-5-5-5-5-5-5---------------|
D|-5-5-5-5-5-5--x-x-3--x-x-5-|
A|-3-3-3-3-3-3--x-x-3--x-x-5-|
E|--------------x-x-1--x-x-3-|
PM____________________________

Outro:
e|------------------------------------------------------------------------
B|------------------------------------------------------------------------
G|-5--7--9-9-9-9--7--9--10-10-10-10--9--10--12-12-12-12--10--9--7--5--4-4-
D|-x--x--x-x-x-x--x--x---x--x--x--x--x---x---x--x--x--x---x--x--x--x--x-x-
A|-3--5--7-7-7-7--5--7---8--8--8--8--7---8--10-10-10-10---8--7--5--3--2-2-
E|------------------------------------------------------------------------

e|---------------------------------------------------------------------------------------
B|---------------------------------------------------------------------------------------
G|-5--7--9-9-9-9--7--9--10-10-10-10--9--10--12-12-12-12--9--10-10-10-10--10--12-12-12-12-
D|-x--x--x-x-x-x--x--x---x--x--x--x--x---x---x--x--x--x--x---x--x--x--x---x---x--x--x--x-
A|-3--5--7-7-7-7--5--7---8--8--8--8--7---8--10-10-10-10--7---8--8--8--8---8--10-10-10-10-
E|---------------------------------------------------------------------------------------

e|-----------------------|
B|-----------------------|
G|-5--7--9---------------|
D|-x--x--x--10--10-------|
A|-3--5--7---x---x-------|


Important: The song above is NOT stored on the Chordie server. The original song is hosted at www.xguitar.com. Chordie works as a search engine and provides on-the-fly formatting. Chordie does not index songs against artists'/composers' will. To remove this song please click here.

This song is displayed as text-only. Transposing and tuning is only available for chordpro-songs.

Login - add to songbook

Rating click stars to rate

Layout
Accuracy

SHARE PAGE  




You need to log in to post comments