Guitar Tabs, Chords and Lyrics


G.B.O.H.    Fenix Tx



GBOH - Fenix TX
------------------------------------------------------------------------

Tabbed By justin (fanuvfenix@aol.com)
Intro Verse: Palm Muted
e|------------|
B|------------|
G|-9--7-------|
D|-9--7--7--9-|
A|-7--5--7--9-|
E|-------5--7-|

Guitar 2 Riff
e|------------------------------------------|
B|------------------------------------------|
G|------------------------------------------|
D|-9p10-10p12-9-(x3)-then-9p10-10p12--9-----|
A|------------------------------------9-----|
E|------------------------------------7-----|

Interlude Between Intro Verse and Chorus at 0:21 and 1:58(outro)
e|----------------------------------------------------------------|
B|----------------------------------------------------------------|
G|-9-9-7-6-7--7--7-6-7-----7-6-7-----7-6-7-9--9-------------------|
D|-9-x-x-x-x--7--x-x-x--7--x-x-x--9--x-x-x-x--9-------------------|
A|-7-7-5-4-5--5--5-4-5--7--5-4-5--9--5-4-5-7--7-------------------|
E|----------------------5---------7-------------------------------|

0:31 only
e|----------------------------------------------------------------|
B|----------------------------------------------------------------|
G|-9-9-7-6-7-9-7-6-7-7-6-7-----7-6-7-----7-6-7-9--9---------------|
D|-9-x-x-x-x-x-x-x-x-x-x-x--7--x-x-x--9--x-x-x-x--9---------------|
A|-7-7-5-4-5-7-5-4-5-5-4-5--7--5-4-5--9--5-4-5-7--7---------------|
E|--------------------------5---------7---------------------------|

Verse and Chorus Chords Verse Muted Chorus not Mutes
e|---------------------------------------------------------------------------|
B|---------------------------------------------------------------------------|
G|-9--7----------------------------------------------------------------------|
D|-9--7--7--9----------------------------------------------------------------|
A|-7--5--7--9----------------------------------------------------------------|
E|-------5--7----------------------------------------------------------------|

Solo: h = hammer  / = slide up  \ = slide down
e|-------------------------------------------------------------------|
B|--9h10-9h10-9h10-9h10-9-9-10h12-10h12-10h12-10h12-10-10------------|
G|-------------------------------------------------------------------|
D|-------------------------------------------------------------------|
A|-------------------------------------------------------------------|
E|-------------------------------------------------------------------|

e|-------------------------------------------------------------------|
B|--12h14-12h14-12h14-12h14-12/17-15-14-15p14-12-10------------------|
G|-------------------------------------------------------------------|
D|-------------------------------------------------------------------|
A|-------------------------------------------------------------------|
E|-------------------------------------------------------------------|
  
  Repeat all of this times 3
e|-------------------------------------------------------------------|
B|-9h10-12-12-10-12-14-12-10-10h12-9-9h10----------------------------|
G|-------------------------------------------------------------------|
D|-------------------------------------------------------------------|
A|-------------------------------------------------------------------|
E|-------------------------------------------------------------------|

  Then finish with this
e|-------------------------------------------------------------------|
B|-15-15-15h14 14-14h12 12 12h10-9-9h10-10---------------------------|
G|-------------------------------------------------------------------|
D|-------------------------------------------------------------------|
A|-------------------------------------------------------------------|


Important: The song above is NOT stored on the Chordie server. The original song is hosted at www.xguitar.com. Chordie works as a search engine and provides on-the-fly formatting. Chordie does not index songs against artists'/composers' will. To remove this song please click here.

This song is displayed as text-only. Transposing and tuning is only available for chordpro-songs.

Login - add to songbook

Rating click stars to rate

Layout
Accuracy

SHARE PAGE  




You need to log in to post comments