Guitar Tabs, Chords and Lyrics


A Song for Everyone    Fenix Tx



Album: Lechuza (pick this up)

Tabbed By: bigmouse64

Intro Riff: x4
e|---------------------|------------------------|
B|---------------------|------------------------|
G|--8-8-7777--8-8-7777-|-----7---------------5--|
D|--8-8-8888--8-8-8888-|--10-10------------8-8--|
A|--6-6-6666--6-6-6666-|--10-10------------8-8--|
E|---------------------|--8--8-------------6-6--|
		       Same rythem for these chords, but only play through once.

Riff 1: x1 through
Palm muted, but gradually gets louder. Listen to song for when to remove palm.
e|-------------------|-----------------------|---------------------|
B|-------------------|-----------------------|---------------------|
G|--888-101010-1212--|---121212-101010-1212--|---1515151515151515--|
D|-------------------|-----------------------|---------------------|
A|-------------------|-----------------------|---------------------|
E|-------------------|-----------------------|---------------------|
	  x1		         x6		   End On This

Verse: x4
e|------------------|
B|------------------|
G|--8---------------|
D|--8---10---6---8--|
A|--6---10---6---8--|
E|------8----4---6--|

Play through the chords twice, than palm mute the last two times.

This is played over palm muted part: x2
e|-----------------------------------------|
B|-----------------------------------------|
G|------8---------8---------8---------8----|
D|--------8---------8---------8---------8--|
A|--6--------------------------------------|
E|------------8---------4---------6--------|

  Right befor chorus: x1
e|-------------------|
B|-------------------|
G|--8----------------|
D|--8---8------------|
A|--6---8------------|
E|------6------------|
  "All That I Have"

  Chorus:
e|---------------------------------|
B|---------------------------------|
G|--88xx--88xx--88888888-----------|x2
D|--88xx--88xx--88888888--88888888-|
A|--66xx--66xx--66666666--88888888-|
E|------------------------66666666-|

e|-------------------------------------------------|
B|-------------------------------------------------|
G|------------------------------88888888-----------|
D|--1010101010101010--88888888--88888888--88888888-|
A|--1010101010101010--88888888--66666666--88888888-|
E|--8-8-8-8-8-8-8-8---66666666------------66666666-|

 Play Riff 1 again, but play the end part (G|1515151515151515) somewhere in
 the middle aswell.
 Play verse.
 Than Chorus. Than there is an interlude with no guitar. After, play this.

e|------------------|-----------------------------|
B|------------------|-----------------------------|
G|--8888------------|-----------------------------|x4
D|--8888-1010-1212--|--1010101010101010--88888888-|
A|--6666-8-8--1010--|--1010101010101010--88888888-|
E|------------------|--8-8-8-8-8-8-8-8---66666666-|
	2x			  1x

e|------------------------------|
B|------------------------------|
G|------------------------------|
D|--1010101010101010--88888888--|x2
A|--1010101010101010--88888888--|
E|--8-8-8-8-8-8-8-8---66666666--|

Than end the song with this:
e|---------------------------------------------------------------------------|
B|---------------------------------------------------------------------------|
G|--8--8--8--8--8-Let Last Chord Ring----------------------------------------|
D|--8--8--8--8--8------------------------------------------------------------|
A|--6--6--6--6--6------------------------------------------------------------|
E|---------------------------------------------------------------------------|





Important: The song above is NOT stored on the Chordie server. The original song is hosted at www.xguitar.com. Chordie works as a search engine and provides on-the-fly formatting. Chordie does not index songs against artists'/composers' will. To remove this song please click here.

This song is displayed as text-only. Transposing and tuning is only available for chordpro-songs.

Login - add to songbook

Rating click stars to rate

Layout
Accuracy

SHARE PAGE  




You need to log in to post comments