Guitar Tabs, Chords and Lyrics


ABBA Zabba    Fenix Tx



Title: Abba Zabba
Artist: Fenix Tx
Album: Lechuza
Tabbed by: OZZYnSOADrulz@yahoo.com
Intro (main riff)
e  ---------------------------------------------------------------------
B  ---------------------------------------------------------------------
G  7-----9-----7----11----9-----7-----7-----9-----7----11----9-----14---
D  ---------------------------------------------------------------------
A  5-----7-----5-----9----7-----5-----5-----7-----5-----9----7-----12---
E  ---------------------------------------------------------------------
Okay, you have to listen to the song cause my program I use doesnt work too well on
mxtabs so listen to the song and it will make sense.

Verse
e  ------------------------------
B  ------------------------------
G  --------------------------7---
D  5------------7------------7---
A  5------------7------------5---
E  3------------5----------------
These are the verse chords, the fill below replaces the 3rd chord if u listen to the song,
You know what I mean

Fill
e  -------------------------------------------
B  -------------------------------------------
G  7------------9-----------11-----------X----
D  --------------------------------------X----
A  5------------7------------9-----------X----
E  -------------------------------------------

Chorus
e  ------------------------------
B  ------------------------------
G  --------------------------7---
D  5------------4------------7---
A  5------------4------------5---
E  3------------2----------------
Same thing as above, 3rd Chord switches with fill.

Solo

e  3-----2------------0-----2------------2-----0------------0-----2--
B  -------------3-------------------------------------3--------------
G  ------------------------------------------------------------------
D  ------------------------------------------------------------------
A  ------------------------------------------------------------------
E  ------------------------------------------------------------------

e  5-----2------------0-----2------------3------------2------------3------------5--
B  --------------3-----------------------------------------------------------------G  --------------------------------------------------------------------------------
D  --------------------------------------------------------------------------------
A  --------------------------------------------------------------------------------
E  --------------------------------------------------------------------------------
Okay, listen to the song to find out where they go, the last notes are repeated alot
and it slides but my tab maker doesnt allow repeats so you have to listen to the


Important: The song above is NOT stored on the Chordie server. The original song is hosted at www.xguitar.com. Chordie works as a search engine and provides on-the-fly formatting. Chordie does not index songs against artists'/composers' will. To remove this song please click here.

This song is displayed as text-only. Transposing and tuning is only available for chordpro-songs.

Login - add to songbook

Rating click stars to rate

Layout
Accuracy

SHARE PAGE  




You need to log in to post comments