Guitar Tabs, Chords and Lyrics


Katie W.    Fenix Tx



Band- Fenix Tx
Song- Katie W.
Album- Lechuza
Tabber- usd4ever22

Standard tuning

*- Let ring

Intro
-----------------------------------------|-----------------------------
-----------------------------------------|-----------------------------
-----------------------------------------|-----------------------------
-----------33-3h4p3-33-1h3p1-333-444-666-|xxxx-------------------------
-----------44-------11-------333-444-666-|xxxx-------------------------
-----------------------------111-222-444-|xxxx-------------------------

Pre-Verse/Chorus
-----------------------------------------------------------------------
-----------------------------------------------------------------------
-66-8\\--33--8\\---------------------------------------------------------
-66-8\\--33--8\\-333-444-666---------------------------------------------
-44-8\\--11--8\\-333-444-666---------------------------------------------
---------------111-222-444---------------------------------------------

Verse (palm muted)
----------------------|------------------------------------------------
----------------------|------------------------------------------------
--6666-3333-----------|------------------------------------------------
--6666-3333-3333-4444-|-3----------------------------------------------
--4444-1111-3333-4444-|-3----------------------------------------------
------------1111-2222-|-1----------------------------------------------

Pre Verse Riff
---------13-14-13-14p13------------------------------------------------
14-13-14----------------14---------------------------------------------
-----------------------------------------------------------------------
-----------------------------------------------------------------------
-----------------------------------------------------------------------
-----------------------------------------------------------------------

Solo
-13-14-13-14-13-14-13----------14-13-14-13-14-13--------------------13-
----------------------14-13-14-------------------14-13-14--14-13-14----
-----------------------------------------------------------------------
-----------------------------------------------------------------------
-----------------------------------------------------------------------
-----------------------------------------------------------------------

Solo Cont.
-14-16-13-------------------------13-14-16-18*-16*-14p13---------------
----------14-13-14-13----14-13-14----------------------14--------------
----------------------13-----------------------------------------------
-----------------------------------------------------------------------
-----------------------------------------------------------------------
-----------------------------------------------------------------------

Order-
Intro
Pre-Verse
Verse
Pre-Verse
Pre-Verse Riff
Verse
Chorus
Verse
Chorus
Solo
Chorus


Important: The song above is NOT stored on the Chordie server. The original song is hosted at www.xguitar.com. Chordie works as a search engine and provides on-the-fly formatting. Chordie does not index songs against artists'/composers' will. To remove this song please click here.

This song is displayed as text-only. Transposing and tuning is only available for chordpro-songs.

Login - add to songbook

Rating click stars to rate

Layout
Accuracy

SHARE PAGE  




You need to log in to post comments