Chordie logo

Skinny    Filter



song:  Skinny	 (written by Richard Patrick)
band:  Filter
Album: Title Of Record
Tuning: Drop-D
tabbed by: 'Nufan' - Peter Tom Takaro 
problems & feedback on nouseforaname@freemail.hu
keys,               

/ = slide up
\ = slide down
x = strum muted strings / mute string
()= palm mute
h = hammer on
p = pull off
****Intro****

Guitar 1

E|----------------------------------------------------|
B|---10h12p10----8---7-----7h8p7---5------------------|
G|-------------------------------------7-\-5----------|
D|----------------------------------------------------|
A|-0----------0----0-----0-------0---0----------------|
D|----------------------------------------------------|

E|----------------------------------------------------|
B|----------------------------------------------------|
G|----------------------------------------------------|
D|---7h9p7---5---4------4---4h5-5-/-7-/-10^-----------|
A|-0-------0---0------0---0---------------------------|
D|----------------------------------------------------|

Guitar 2

E|-------0-----------------0--------0--------------0--|
B|-------1-----------------1--------1--------------1--|
G|-----2---2--------2-0--2--------2---2-------2-0--2--|
D|---2-------2----0-------------2-------2---0------0--|
A|-0--------------------------0-----------------------|
D|--------------0-------------------------0-----------|

Guitar 1

E|-------------------------------------------------------------------|
B|--------------------------------------12-8--8-(8)(8)-8h10-10---8\7-|
G|-9--------9--12---11---9\7-----7h9-9-------------------------------|
D|-------7-----------------------------------------------------------|
A|-------------------------------------------------------------------|
D|-------------------------------------------------------------------|

Guitar 2

E|-0--0--0-0-0--0-0-0-0---0--0--0-0-0--0-0-0-0--------|
B|-2--2--2-2-2--2-2-2-2---3--3--3-3-3--3-3-3-3--------|
G|-2--2--2-2-2--2-2-2-2---2--2--2-2-2--2-2-2-2--------|
D|-2--2--2-2-2--2-2-2-2---0--0--0-0-0--0-0-0-0--------|
A|-0--0--0-0-0--0-0-0-0---0--0--0-0-0--0-0-0-0--------|
D|-x--x--x-x-x--x-x-x-x---0--0--0-0-0--0-0-0-0--------|
****Pre-Chorus****

Guitar 1 w/distortion

E|----------------------------------------------------|
B|----------------------------------------------------|
G|--5--5--5-5---3--3--3-3---2--2--2--2-2---2-4--------|
D|--5--5--5-5---3--3--3-3---2--2--2--2-2---2-4--------|
A|--3--3--3-3---1--1--1-1---0--0--0--0-0---0-2--------|
D|----------------------------------------------------|

Guitar 2 w/some effect 

?
****Chorus****

Guitar 1

E|----------------------------------------------------|
B|----------------------------------------------------|
G|------------------------------7-7--7--7-7-7--7-7-7--|
D|-10-\-9-7--7--7--7-7--7--7-7--7-7--7--7-7-7--7-7-7--|
A|-10-\-9-7--7--7--7-7--7--7-7--5-5--5--5-5-5--5-5-5--|
D|-10-\-9-7--7--7--7-7--7--7-7------------------------|

Guitar 2

E|----------------------------------------------------|
B|----------------------------------------------------|
G|------------------------------12-(12)-12--12-/-14---|
D|-10-\-9-7--7--7--7-7--7--7-7---x-(-x)--x---x-/--x---|
A|-10-\-9-7--7--7--7-7--7--7-7--10-(10)-10--10-/-12---|
D|-10-\-9-7--7--7--7-7--7--7-7------------------------|

Guitar 1

E|----------------------------------------------------|
B|----------------------------------------------------|
G|------------------------------7-7--7--7-7-7--7-7-7--|
D|-10-\-9-7--7--7--7-7--7--7-7--7-7--7--7-7-7--7-7-7--|
A|-10-\-9-7--7--7--7-7--7--7-7--5-5--5--5-5-5--5-5-5--|
D|-10-\-9-7--7--7--7-7--7--7-7------------------------|

Guitar 2

E|-------------------------------------------------------------------|
B|-------------------------------------------------------------------|
G|-----------------------------11/12-12-12-12-14-11-11-11-11/14-14-14|
D|-10-\-9-7--7--7--7-7--7--7-7--x/-x--x--x--x--x--x--x--x--x/-x--x--x|
A|-10-\-9-7--7--7--7-7--7--7-7--9/10-10-10-10-12--9--9--9--9/12-12-12|
D|-10-\-9-7--7--7--7-7--7--7-7---------------------------------------|
Chorus ends with an A power chord

then

****Bridge****

strum A and D major chords once 


then

Guitar 1

E|-------------------------------------------------------------------|
B|--------------------------------------12-8--8-(8)(8)-8p7-7--7h10-10|
G|-9--------9--12---11---9\7-----7h9-9-------------------------------|
D|-------7-----------------------------------------------------------|
A|-------------------------------------------------------------------|
D|-------------------------------------------------------------------|

Guitar 2

E|-0--0--0-0-0--0-0-0-0---0--0--0-0-0--0-0-0-0--------|
B|-2--2--2-2-2--2-2-2-2---3--3--3-3-3--3-3-3-3--------|
G|-2--2--2-2-2--2-2-2-2---2--2--2-2-2--2-2-2-2--------|
D|-2--2--2-2-2--2-2-2-2---0--0--0-0-0--0-0-0-0--------|
A|-0--0--0-0-0--0-0-0-0---0--0--0-0-0--0-0-0-0--------|
D|-x--x--x-x-x--x-x-x-x---0--0--0-0-0--0-0-0-0--------|

****Verse 2****

****Pre-Chorus*****

****Chorus****

****Outro****

E|-----------------------------------------------------------------|
B|-----------------------------------------------------------------|
G|-12--12--12-12-12-12/14-14-14--11--11--11-11-11--11-11-11--------|
D|--x---x---x--x--x--x/-x--x--x---x---x---x--x--x---x--x--x--------|
A|-10--10--10-10-10-10/12-12-12---9---9---9--9--9---9--9--9--------|
D|-----------------------------------------------------------------|

E|-----------------------------------------------------------------|
B|-----------------------------------------------------------------|
G|-12--12--12-12-12-12/14-14-14--11--11/12-12-12\11-11-11/14-14-14-|
D|--x---x---x--x--x--x/-x--x--x---x---x/-x--x--x\-x--x--x/-x--x--x-|
A|-10--10--10-10-10-10/12-12-12---9---9/10-10-10\-9--9--9/12-12-12-|
D|-----------------------------------------------------------------|

then hit open D strings 
              A  
              D 

then again the upper part

and finally end on an A power Chord


Important: The song above is NOT stored on the Chordie server. The original song is hosted at www.xguitar.com. Chordie works as a search engine and provides on-the-fly formatting. Chordie does not index songs against artists/composers will. To remove this song please click here.

This song is displayed as text-only. Transposing and tuning is only available for chordpro-songs.

Login - add to songbook

Rating click stars to rate

Layout
Accuracy

SHARE PAGE  



You need to log in to post comments