Guitar Tabs, Chords and Lyrics


Waiting    Finch



----------------------------------------------------------------------------------

                                    Waiting

-----------------------------------------------------------------------------------


This is my first tab so dont complain if its wrong
-Pat Marsden

Guitar 1 Intro:
e--------------------------------------------------------------------------
b--------------------------------------------------------------------------
g-------------7------4------7------4---------4-----------------------------
d----------------55-----55----55-----55---7---7-5--------------------------
a--------------------------------------------------------------------------
E--------------------------------------------------------------------------
              ( light Palm mute.........................) (5x)

e--------------------------------------------------------------------------
b--------------------------------------------------------------------------
g--------------------------------------------------------------------------
d-----7777777777777777777--9999999999999999--------------------------------
a-----5555555555555555555--7777777777777777--------------------------------
E-----5555555555555555555--7777777777777777--------------------------------

e--------------------------------------------------------------------------
b--------------------------------------------------------------------------
g--------------------------------------------------------------------------
d-----11-11-11-11-11-11-11-11-11-11-11-11-11-11-11-11-11-11--11--11-11-----
a-----9--9---9--9---9--9---9--9---9--9---9--9---9--9---9--9---9--9--9------
E-----9--9---9--9---9--9---9--9---9--9---9--9---9--9---9--9---9--9--9------

Chorus:
e--------------------------------------------------------------------------
b--------------------------------------------------------------------------
g---------------777-9999999-11-11-11--7777777------------------------------
d---------------777-9999999-11-11-11--0000000------------------------------
a---------------555-7777777--9--9--9--0000000------------------------------
E---------------555-7777777--9--9--9--0000000------------------------------

Verse: 'Today's just like all the others...'
e--------------------------------------------------------------------------
b--------------------------------------------------------------------------
g--7777777-6---------------------------------------------------------------
d--xxxxxxx-x--444444444444-------------------------------------------------
a--5555555-4--444444444444-------------------------------------------------
E-------------444444444444-------------------------------------------------

Pre-Chorus... 'As you scream at me...'
e--------------------------------------------------------------------------
b--------------------------------------------------------------------------
g--------------------------------------------------------------------------
d-----------9999-9999-99--7777-7777-77-------------------------------------
a-----------9999-9999-99--7777-7777-77-------------------------------------
E-----------9999-9999-99--7777-7777-77-------------------------------------

Bridge: 'And I will never make the same mistake...'
e--------------------------------------------------------------------------
b--------------------------------------------------------------------------
g--------------------------------------------------------------------------
d--------10---0---2--------------------------------------------------------
a--------10---0---2--------------------------------------------------------
E--------10---0---2--------------------------------------------------------

e--------------------------------------------------------------------------
b--------------------------------------------------------------------------
g--------------------------------------------------------------------------
d-----10-10-10-10-10-10-10--0000000--2222222-------------------------------
a-----10-10-10-10-10-10-10--0000000--2222222-------------------------------
E-----10-10-10-10-10-10-10--0000000--2222222-------------------------------

Outro Bridge Part:
e--------------------------------------------------------------------------
b--------------------------------------------------------------------------
g--------------------------------------------------------------------------
d---77777777-12-12-12-12-12-12-12---XXXXXXXX-------------------------------
a---77777777-12-12-12-12-12-12-12---XXXXXXXX-------------------------------
E---77777777-12-12-12-12-12-12-12---XXXXXXXX-------------------------------




Important: The song above is NOT stored on the Chordie server. The original song is hosted at www.xguitar.com. Chordie works as a search engine and provides on-the-fly formatting. Chordie does not index songs against artists'/composers' will. To remove this song please click here.

This song is displayed as text-only. Transposing and tuning is only available for chordpro-songs.

Login - add to songbook

Rating click stars to rate

Layout
Accuracy

SHARE PAGE  




You need to log in to post comments