""; ?> Famous by Finger Eleven - guitar chords, guitar tabs and lyrics - chordie

Famous

Finger Eleven

------0---1---0-    -----0------

----1-----------    -----1------

--2-----2---2---    ---2--------

---------------- x2 -3-------2~-

----------------    ------------

----------------    ------------


 FGEmF
---  ---  ---  ---
---  ---  ---  ---
-2-  -4-  -0-  -2-
-3-  -5-  -2-  -3-
-3-  -5-  -2-  -3-
-3-  -5-  -2-  -3-

Chorus
(repeat progression 2 times first time, 2.5 times on the second
and then in outro, play 2x and repeat that ".5" til end)
Gtr. 1
 A5C5Csus4EmD5Csus4C5D5
------x---------------x-----------------x---------------x---
------x---------------x-----------------x---------------x---
--2-2-x-5--5-5-5------x-----------------x-----------5-5-x-7-
--2-2-x-5--5-5-5--5-5-x-5--5-5-5--0-0-0-x-5--5-5-5--5-5-x-7-
--0-0-x-3--3-3-3--3-3-x-2--2-2-2--0-0-0-x-3--3-3-3--3-3-x-5-
--2-2-x-5--5-5-5--3-3-x-2--2-2-2--0-0-0-x-3--3-3-3--5-5-x-7-

Gtr. 2
------x---------------x-----------------x---------------x---
------x---------------x-----------------x---------------x---
--9-9-x-#--#-#-#--5-5-x-4--4-4-4--2-2-2-x-5--5-5-5--#-#-x---
--7-7-x-%--%-%-%--3-3-x-2--2-2-2--0-0-0-x-3--3-3-3--%-%-x-0-
--7-7-x-%--%-%-%--3-3-x-2--2-2-2--0-0-0-x-3--3-3-3--%-%-x-0-
--7-7-x-%--%-%-%--3-3-x-2--2-2-2--0-0-0-x-3--3-3-3--%-%-x-0-

Verse
Gtr. 1
------------------    -----------
--------6~~~-5~~~-    -----------
------------------ x2 -----------
--7~~~------------    -7~~~-5~~~-
------------------    -----------
------------------    -----------

Gtr. 2
------------------    -----------
------------------    -----------
--2--strum-------- etc-----------
--2---it----------    -3----2----
--0---------------    -3----2----
------------------    -3----2----

Interlude
(Figure out the rhythm yourself)
Gtr. 1 (this riff is also played in the beginning of the section)
D5 Em D* Eb*F* Eb*D*
---  ---  ---------------
-3-  ---  ---------------
-2-  ---  -7--8--%--8--7-
-0-  -5-  -x--x--x--x--x-
-0-  -2-  -5--6--8--6--5-
-0-  -2-  ---------------

Gtr. 2
 D5Em
---  ---

 -3-----2----
          -0-  -5-
-0- -2-
-0- -2-
Interlude Ends On
Gtr. 1
 Csus4FCsus4
------------
------------
------------ etc.
-5--5--7--5-
-3--3--3--3-
-3--3--3--3-

Gtr. 2
 Csus4----------5--3--3-
                               Bridge
F* G* Em* F*
---------------
---------------
-2---4---0---2-
-3---5---2---3-
---------------
---------------

Tab by Awake_and_Dreaming06 (a.k.a. nate (zero606@excite.com))








A5 C5 Csus4 D5 Em F G
variations - click chord images
Transpose chords:
Tuning:
Cool service:
View: Size:
A  A  A
Rating:
Layout:
  • Currently 2.5/5 Stars.
  • 1
  • 2
  • 3
  • 4
  • 5
 
Accuracy:
  • Currently 3.7/5 Stars.
  • 1
  • 2
  • 3
  • 4
  • 5
 
click stars to rate
Chordie recommends:
Learn how to play guitar at JamPlay.com
Songbook:
Login to add this song to your songbook
Support the artist
Preview/buy this song
MSN Music
Why this non-profit ad?

 
login to add comments/video/corrections