Guitar Tabs, Chords and Lyrics


Quicksand   Finger Eleven

e-------------


b-------------


g---5-\\4--4---


d---5-\\4--4---


a---3-\\2--2---


e---3-\\2--2---


e------------------------------------


b------------------------------------


g----------9-\\7--7---------5\\4--4----


d---2--2---9-\\7--7---5--5--5\\4--4----


a---2--2---7-\\5--5---5--5--3\\2--2----


e---0--0---7-\\5--5---3--3--3\\2--2----


e-------------10--12----------------


b-------0-------0---0------------------


g--------0---------------------------


e---------------------------------


b---------------------------------


g--------------------------////-9-9


d---------------2-2-2-2-2-2////-9-9


a---------------2-2-2-2-2-2////-7-7


e---------------0-0-0-0-0-0-----7-7


e-------------------------------------------


b-------------------------------------------


g---------------5--5-----------4--4--4--4---


d---2--2--2-----5--5---5--5----4--4--4--4---


a---2--2--2-----3--3---5--5----2--2--2--2---


e---0--0--0-----3--3---3--3----2--2--2--2---


e-------------------------------------------


b-------------------------------------------


g---------------5--5-----------4--4--4--4---


d---2--2--2-----5--5---5--5----4--4--4--4---


a---2--2--2-----3--3---5--5----2--2--2--2---


e---0--0--0-----3--3---3--3----2--2--2--2---


e-------------------------------------------


b-------------------------------------------


g---------------5--5-----------4--4--4--4---


d---2--2--2-----5--5---5--5----4--4--4--4---


a---2--2--2-----3--3---5--5----2--2--2--2---


e---0--0--0-----3--3---3--3----2--2--2--2---


e-------------------------------------------


b-------------------------------------------


g---------------5--5-----------4--4--4--4---


d---2--2--2-----5--5---5--5----4--4--4--4---


a---2--2--2-----3--3---5--5----2--2--2--2---


e---0--0--0-----3--3---3--3----2--2--2--2---


a--------------\\\\\\\\\\\\-


e--------------\\\\\\\\\\\\-


e------------------------------


b------------------------------


g---------------------7/9--9-9-


d---------------------7/9--9-9-


a---------------------5/7--7-7-


e---------------------5/7--7-7-


e--------------0------10-12----------------------------


b---------0--------------------------------------------


g------------0-----------------------------------------


e-10~~------------------------------


b-----------------------------------


g-----------------------------------


e----------------------------------------------------


b----------------------------------------------------


g-------------------------------------//9-9----------


d--------------------------2-2-2-2-2-2//9-9----------


a--------------------------2-2-2-2-2-2//7-7----------


e--------------------------0-0-0-0-0-0--7-7------------


e-------------------------------------------


b-------------------------------------------


g---------------5--5-----------4--4--4--4---


d---2--2--2-----5--5---5--5----4--4--4--4---


a---2--2--2-----3--3---5--5----2--2--2--2---


e---0--0--0-----3--3---3--3----2--2--2--2---


e-------------------------------------------


b-------------------------------------------


g---------------5--5-----------4--4--4--4---


d---2--2--2-----5--5---5--5----4--4--4--4---


a---2--2--2-----3--3---5--5----2--2--2--2---


e---0--0--0-----3--3---3--3----2--2--2--2---


e-------------------------------------------


b-------------------------------------------


g---------------5--5-----------4--4--4--4---


d---2--2--2-----5--5---5--5----4--4--4--4---


a---2--2--2-----3--3---5--5----2--2--2--2---


e---0--0--0-----3--3---3--3----2--2--2--2---


e-------------------------------------------


b-------------------------------------------


g---------------5--5-----------4--4--4--4---


d---2--2--2-----5--5---5--5----4--4--4--4---


a---2--2--2-----3--3---5--5----2--2--2--2---


e---0--0--0-----3--3---3--3----2--2--2--2---

   [E5]                      [G5]   Stop your talking down
e------------------------------------------------
b------------------------------------------------
g--13-13-13-13-13/14--///19~---------------------
d------------------------------------------------
a--11-11-11-11-11/12--///17~---------------------
e------------------------------------------------

   [E5]                      [G5]    I lack the strenght to sit or stand
e----------------------------------------------------------------
b----------------------------------------------------------------
g--13-13-13-13-13/14--///19~-----------------------------21~-----
d----------------------------------------------------------------
a--11-11-11-11-11/12--///17~-----------------------------19~-----
e----------------------------------------------------------------

   [E5]                      [G5]   I lost my self confidence
e----------------------------------------------------------------
b----------------------------------------------------------------
g--13-13-13-13-13/14--///19~-----------------------18~-----------
d----------------------------------------------------------------
a--11-11-11-11-11/12--///17~-----------------------16~-----------
e----------------------------------------------------------------
e----------------------------------------------------------------

   [D5]In t[C#5]he Quicksand[E5]
e------------------------
b------------------------
g--19~-18~---------21~---
d------------------------  X4 (on fourth, do not play the high note)
a--17~-16~---------19~---
e------------------------

INTERLUDE: Guitar 1 holds the E5 while guitar 2 plays little riff
Riff 1-no distortion, weird effects pedal
e----------------------------------------------------
b----------------------------------------------------
g----------------------------------------------------
d----6~------------6~---------6~-----------6~-0-6/9-9-  X2
a---------5-5-7---------5-7--------5-5-7-------------
e--0----0--------0----0-----0----0-------0-----------

1st time- no lyrics
2nd time- \"Not now, or ever, sink slowly my treasure\"
After 2x Guitar 1 plays same riff with distortion X2
After those 2 Guitar one plays same riff with wah
Guitar two plays this riff
Riff 2
e--------------------------------------------------------------
b-----9~------------9~-----------9~-------------9~-0-9/12-12~--
g----------7-7-9----------7-9----------7-7-9-------------------
d-------------------------------------------------------------- X2
a--------------------------------------------------------------
e--0-----0--------0-----0------0-----0--------0----------------

On 2nd time, guitar one plays this (tremelo picking)
e---------------
b---------------

g-13-14-16-19-21
d---------------

[a-11-12-14-17-19]                                                                        
e---------------

CHORUS 3: Same as chorus 1 and 2
ENDING:
Riff 1- with distortion, Guitar 1 X2
Riff 2- with distortion, Guitar 2 X2
THAT\'S IT, IT SEEMS PRETTY COMPLICATED BUT JUST LISTEN TO THE
SONG AND FIGURE OUT THE TIMING AND IT SHOULD BE PRETTY EASY.

Important: The song above is NOT stored on the Chordie server. The original song is hosted at www.xguitar.com. Chordie works as a search engine and provides on-the-fly formatting. Chordie does not index songs against artists'/composers' will. To remove this song please click here.

Text color:
Chord color:
Chord grids: 
Font size:    
Page size: 

C#5 D5 E5 G5
variations - click chord images

Login - add to songbook

Transpose chords

Tuning

Rating click stars to rate

Layout
Accuracy

SHARE PAGE  




You need to log in to post comments