Guitar Tabs, Chords and Lyrics


Alcoholic    Fishbone


E---------|---------|








B---------|---------|








G-9-9-9-9-|-7-7-7-7-|



D-9-9-9-9-|-7-7-7-7-|



A-7-7-7-7-|-5-5-5-5-|



E---------|---------|



A--------|



E--------|



E---------|---------|



B---------|---------|



G-9-9-9-9-|-7-7-7-7-|



D-9-9-9-9-|-7-7-7-7-|



A-7-7-7-7-|-5-5-5-5-|



E---------|---------|



E---------|



B---------|



G---------|





  [d]  [u]  [d]  [u]    [d]  [u]  [d]  [u]    [d]  [u]  [d]  [u]    [d]   [u]   [d]   [u]                                                                                                                


E---------|---------|---------|-------------|
B---------|---------|---------|-------------|
G-9-9-9-9-|---------|---------|-11-11-11-11-|
D-9-9-9-9-|-9-9-9-9-|-7-7-7-7-|-11-11-11-11-|
A-7-7-7-7-|-9-9-9-9-|-7-7-7-7-|-9--9--9--9--|
E---------|-7-7-7-7-|-5-5-5-5-|-------------|





Riff 6:  (play fast) (2nd part of chorus)





                                                                                                                                                        


E----------------------------------|
B----------------------------------|
G-7-7-7-------7-7-7--------7---7---|
D-7-7-7-7-7-7-7-7-7-7-7-7--7-7-7-7-|
A-5-5-5-7-7-7-5-5-5-7-7-7--5-7-5-7-|
E-------5-5-5-------5-5-5----5---5-|








Riff 7:  (play fast) (post chorus)


  [d]  [u]  [d]  [u]  [d]  [d]  [d]  [u]  [d]  [u]  [d]  [d]                                                                                                                                 


E-------------------------|
B-------------------------|
G-----------9-----------9-|
D-9-9-9-9-9-9-9-9-9-9-9-9-|
A-9-9-9-9-9-7-9-9-9-9-9-7-|
E-7-7-7-7-7---7-7-7-7-7---|








Riff 8 (strummed quickly):





E-2-3-0-2-|


B-3-3-3-3-|


G-2-2-2-2-|


                                                                                                                                                        


D---------|
A---------|
E---------|



Important: The song above is NOT stored on the Chordie server. The original song is hosted at www.xguitar.com. Chordie works as a search engine and provides on-the-fly formatting. Chordie does not index songs against artists'/composers' will. To remove this song please click here.

This song is displayed as text-only. Transposing and tuning is only available for chordpro-songs.

Login - add to songbook

Rating click stars to rate

Layout
Accuracy

SHARE PAGE  




You need to log in to post comments