Chordie logo


Recognize    Flaw



Flaw
Recognize
Submitted by Ryan Fogg
Yes I know, about time I had the 7-lined tab to show where to play.



Intro:
e|----------------------------------------------|
b|----------------------------------------------|
G|11~-10~--11-13-11-10-7~-4-7-7/9-9-4/5-4-2-2/4-|
D|----------------------------------------------|
A|----------------------------------------------|
E|----------------------------------------------|
B|----------------------------------------------|

Verse:
e|----------------------------------------------|
b|----------------------------------------------|
G|11~-10~--11-13-11-10-7~-4-7-7/9-9---11-10-13--|
D|----------------------------------------------|
A|----------------------------------------------|
E|----------------------------------------------|
B|----------------------------------------------|

Pre-Chorus:
e|----------------------------------------------------------------------------------
b|----------------------------------------------------------------------------------
G|-------------4/5-4---4-------------------13/14-13-------------------4/5-4---4-----
D|2-2-2-2------x/x-x---x--------------------x/-x--x------2-2-2-2------x/x-x---x-----
A|2-2-2-2------2/3-2---2------5-5-5-5------11/12-11------2-2-2-2------2/3-2---2-----
E|0-0-0-0--0-0-------0---0-0--5-5-5-5--0-0----------0-0--0-0-0-0--0-0-------0---0-0-
B|----------------------------3-3-3-3-----------------------------------------------
PM. . .    . .       .   . .  . . .    . .          . .  . . .    . .       .   . .

Pre-Chorus cont.
e|-------------|
b|-------------|
G|-------------|
D|-------------|
A|5-5-5-5~-3/5-|
E|5-5-5-5~-3/5-|
B|3-3-3-3~-1/3-|
PM. . .

Chorus:
               x2              x1
e|------------|-----------------|----------------------------------|
b|------------|-----------------|----------------------------------|
G|--5///------|--5///-7///-9///-|--5///----------------------------|
D|2-x----5~---|2-x----x----x----|2-x----------------------5-5-5-2~-|
A|2-3///-5~-5-|2-3///-5///-7///-|2-3///-5-5-5-5--3-3-3-3--5-5-5-2~-|
E|0------3~-5-|0----------------|0------5-5-5-5--3-3-3-3--3-3-3-0~-|
B|----------3-|-----------------|-------3-3-3-3--1-1-1-1-----------|
PM                                      . . .    . . .    . .



Verse again
Chorus again

Bridge 1                 x2
e|-----------------------------|
b|-----------------------------|
G|-----------------------------|
D|2-----5-5-4-7--2-----5-5-4---|
A|2-2-3-5-5-4-7--2-2-3-5-5-4-5-|
E|0-2-3-3-3-2-5--0-2-3-3-3-2-5-|
B|--0-1------------0-1-------3-|
PM. . . . . . .  . . . . . . .

Bridge 2                 x2
e|------------------------------|
b|------------------------------|
G|------14-13-16--------14-13-7-|
D|2------x--x--x--2------x--x-x-|
A|2-2-3-12-11-14--2-2-3-12-11-5-|
E|0-2-3-----------0-2-3---------|
B|--0-1-------------0-1---------|


             x2                     x1
e|------------|-----------------|-----------------------|
b|------------|-----------------|-----------------------|
G|--5///------|--5///-7///-9///-|--5///--5-4---5-4------|
D|2-x----5~---|2-x----x----x----|2-x-----x-x-7-x-x-5----|
A|2-3///-5~-5-|2-3///-5///-7///-|2-3///--3-2-x-3-2-x-3~-|
E|0------3~-5-|0----------------|0-----------5-----3-3~-|


Important: The song above is NOT stored on the Chordie server. The original song is hosted at www.xguitar.com. Chordie works as a search engine and provides on-the-fly formatting. Chordie does not index songs against artists/composers will. To remove this song please click here.

This song is displayed as text-only. Transposing and tuning is only available for chordpro-songs.

Login - add to songbook

Rating click stars to rate

Layout
Accuracy

SHARE PAGE  




You need to log in to post comments