Chordie logo

Remember    Flotsam and Jetsam







Title: "Remember"
Band: Flotsam and Jetsam
Album: Drift
Transcribed by Michael Daksiewicz

b = slight bend
\ = slide
p = pull-off
PM = palm muted

(Part I) Play 2X
             PM.....                           PM.....
e|-----------------------------------------------------------------------|
B|-----------------------------------------------------------------------|
G|-14----12--------------------------14----12----------------------------|
D|-14----12--------------------------14----12----------------------------|
A|-12----10--------2------2------2---12----10--------2--\7777775-------2-|
E|-------------0-000--3b--0--3b--0---------------0-000----------7p5-3b-0-|

(Part II) Play 2X
e|---------------------------------------------------------|
B|---------------------------------------------------------|
G|---------------------------------------------------------|
D|-9-------------------------------------------------------|
A|-7-------------5----------------2------\7777775-------2--|
E|-0-----------------6---5---3b---0--------------7p5-3b-0--|

Play (Part I) 2X
Play (Part II) 2X

(Chorus) Play 4X
                                  PM...
e|------------------------------------------|
B|------------------------------------------|
G|------------------------------------------|
D|------------------------------------------|
A|-5----7---8---5b---2-----5----7---8-7--2--|
E|-3----5---6---3b---0-----3----5---6-5--0--|

Play (Part I) 2X
Play (Part II) 2X
Play (Chorus) 4X

(Part IV) Play 4X
  PM.....               PM.....               PM.....
e|---------------------------------------------------------------------|
B|---------12--12-12-12----------12--12-12-12----------12--12-12-------|
G|---------12--12-12-12----------12--12-12-12----------12--12-12-------|
D|---------12--12-12-12----------12--12-12-12----------12--12-12--5--7-|
A|-2---------------------2---------------------2------------------5--7-|
E|-0-0000----------------0-0000----------------0-0000-------------3--5-|

Play (Part I) 2X
Play (Part III) 4X
Play (Part IV) 6X

(Ending)
e|-----------------------------------------|
B|-----------------------------------------|
G|-----------------------------------------|
D|--5-----7------------2-------------------|
A|--5-----7------------2-------------------|



Important: The song above is NOT stored on the Chordie server. The original song is hosted at www.xguitar.com. Chordie works as a search engine and provides on-the-fly formatting. Chordie does not index songs against artists/composers will. To remove this song please click here.

This song is displayed as text-only. Transposing and tuning is only available for chordpro-songs.

Login - add to songbook

Rating click stars to rate

Layout
Accuracy

SHARE PAGE  



You need to log in to post comments