Chordie logo


DOA   Foo Fighters



Tuning: eBGDAE


Intro
E||--------------------||
B||--------------------||
G||-5-5-5-5--5-5-5-5-5-||
D||-7-7-7-7--7-7-7-7-7-||
A||-0-0-0-0--5-5-5-5-5-||
E||--------------------||


Pre-Chorus
  Gtr. 1
E||------------------------------||
B||------------------------------||
G||-----0-0------------0-0-------|| Play the
D||-3-3------(4x)-----------(4x)-|| whole thing
A||-3-3------------5-5-----------|| 2x
E||-1-1------------2-2-----------||
  Gtr. 2
E||-------------------||
B||-------------------||
G||---0---------0-----||
D||------5---------5--||
A||-0--------0--------||
E||-------------------||


Chorus
E||------------------------------||
B||------------------------------||
G||-------7-----7-----7-----7----||
D||-7-----7-----7-----7-----7----||
A||-7-----5-----5-----5-----5----||
E||-5-----------7-----------7----||


DOA
Foo Fighters
In Your Honour

hey, here's a quick version of the song
"dead on arrival" their next single i bet.

verse:
e--------------------|
b--1-1-1-1--1-1-1-1--|
g--2-2-2-2--0-0-0-0--|
d--0-0-0-0--2-2-2-2--|
a-----------3-3-3-3--|
d--------------------|
   a/c      c

bridge: F, G, F, G

chorus:
e------------------------------|
b---------------------0-0-0-0--|
g--2---------2--------7-4-7-9--|
d--2---------2--------7-4-7-9--|
a--0---------0--------5-2-5-7--|
d---------------------0-0-0-0--|

interlude:
e------------------------|
b------------------------|
g------------------------|
d--2-2-2-2---------------|
a--2-2-2-2-0-------------|
d--2-2-2-2-0-7--5~~7~~5--|

outro
e--------------------|
b--1h3-3-1--1p0-1-1--|
g--2-2-2-2--0-0-0-0--|
d--0-0-0-0--2-2-2-2--|
a-----------3-3-3-3--|
d--------------------|
   a/c      c

tabbed by snot_dawg


Important: The song above is NOT stored on the Chordie server. The original song is hosted at www.xguitar.com. Chordie works as a search engine and provides on-the-fly formatting. Chordie does not index songs against artists/composers will. To remove this song please click here.

This song is displayed as text-only. Transposing and tuning is only available for chordpro-songs.

Login - add to songbook

Rating click stars to rate

Layout
Accuracy

SHARE PAGE  




You need to log in to post comments