Chordie logo

Over and Out   Foo Fighters



eadgbe
Intro
e||-------------------------------------------------||
B||-------------------------------------------------||
G||----------0-----0-----0--------------------------||
D||---------------------------4\5----4----2p0----0--||
A||----2--------------2-----0-----0-----0----(0)----||
E||-0-----0-----------------------------------------||

e||-------------------------------------------------||
B||-------------------------------------------------||
G||----------0----0-----0-------------------2p0-----||
D||--------------------------4\5----4----2p0---2p0--||
A||----2-------------2-----0-----0-----0------------||
E||-0-----0-----------------------------------------||

e||-------------------------------------------------||
B||-------------------------------------------------||
G||----------0-----0-----0-----------------------0--||
D||---------------------------4\5----4----2p0-------||
A||----2--------------2-----0-----0-----0-----0-----||
E||-0-----0-----------------------------------------||

e||-------------------||
B||-------------------||
G||-------------------||
D||-------0--------0--||
A||----2--------0-----||
E||-3--------2--------||


Verse 1
e||-------------------------------------------------||
B||-------------------------------------------------||
G||----------0-----0-----0--------------------------||
D||---------------------------4\5----4----2p0----0--||
A||----2--------------2-----0-----0-----0----(0)----||
E||-0-----0-----------------------------------------||

e||-------------------------------------------------||
B||-------------------------------------------------||
G||----------0----0-----0-------------------2p0-----||
D||--------------------------4\5----4----2p0---2p0--||
A||----2-------------2-----0-----0-----0------------||
E||-0-----0-----------------------------------------||

e||-------------------------------------------------||
B||-------------------------------------------------||
G||----------0-----0-----0--------------------------||
D||---------------------------4\5----4----2p0----0--||
A||----2--------------2-----0-----0-----0-----0-----||
E||-0-----0-----------------------------------------||

e||-------------------||
B||-------------------||
G||-------------------||
D||-------0--------0--||
A||----2--------0-----||
E||-3--------2--------||

e||-------------------------------------------------||
B||-------------------------------------------------||
G||----------0-----0-----0--------------------------||
D||---------------------------4\5----4----2p0----0--||
A||----2--------------2-----0-----0-----0----(0)----||
E||-0-----0-----------------------------------------||

e||-------------------------------------------------||
B||-------------------------------------------------||
G||----------0----0-----0-------------------2p0-----||
D||--------------------------4\5----4----2p0---2p0--||
A||----2-------------2-----0-----0-----0------------||
E||-0-----0-----------------------------------------||

e||-------------------------------------------------||
B||-------------------------------------------------||
G||----------0-----0-----0--------------------------||
D||---------------------------4\5----4----2p0----0--||
A||----2--------------2-----0-----0-----0----(0)----||
E||-0-----0-----------------------------------------||

e||-------------------------------------------------||
B||-------------------------------------------------||
G||----------0----0-----0-------------------2p0-----||
D||-------------------------4\5----4----2p0----2p0--||
A||----2-------------2-----0-----0-----0------------||
E||-0-----0-----------------------------------------||

e||-------------------------------------------------||
B||-------------------------------------------------||
G||----------0-----0-----0--------------------------||
D||---------------------------4\5----4----2p0----0--||
A||----2--------------2-----0-----0-----0-----0-----||
E||-0-----0-----------------------------------------||

e||-------------------------------------------||
B||-------------------------------------------||
G||----------------------------0-----0-----0--||
D||-------0--------0--------------------------||
A||----2--------0--------2--------------2-----||
E||-3--------2--------0-----0-----------------||

e||-------------------------------------------||
B||-------------------------------------------||
G||----------------------------0-----0-----0--||
D||-------0--------0--------------------------||
A||----2--------0--------2--------------2-----||
E||-3--------2--------0-----0-----------------||

e||-------------------||
B||-------------------||

G||-------------------||
D||-------0--------0--||
A||----2--------0-----||
E||-3--------2--------||


Pre-Chorus
e||-------------------||
B||-------------------||
G||-0-0-0-0-0-0-0-0-0-||
D||-2-2-2-2-2-2-2-2-2-||
A||-2-2-2-2-2-2-2-2-2-||
E||-0-0-0-0-0-0-0-0-0-||


Chorus
e||-0-0-0-0-0-0-0-0--0-0-0-0-0-0-0-0-||
B||-0-0-0-0-0-0-0-0--0-0-0-0-0-0-0-0-||
G||-6-6-6-6-6-6-6-6--4-4-4-4-4-4-4-4-||
D||-7-7-7-7-7-7-7-7--5-5-5-5-5-5-5-5-||
A||-7-7-7-7-7-7-7-7--5-5-5-5-5-5-5-5-||
E||-5-5-5-5-5-5-5-5--3-3-3-3-3-3-3-3-||

e||-0-0-0-0-0-0-0-0-||
B||-0-0-0-0-0-0-0-0-||
G||-6-6-6-6-6-6-6-6-||
D||-7-7-7-7-7-7-7-7-||
A||-7-7-7-7-7-7-7-7-||
E||-5-5-5-5-5-5-5-5-||


Outro
e||-0-0-0-0-0-0-0-0--0-0-0-0-0-0-0-0-||
B||-0-0-0-0-0-0-0-0--0-0-0-0-0-0-0-0-||
G||-0-0-0-0-0-0-0-0--6-6-6-6-6-6-6-6-||
D||-2-2-2-2-2-2-2-2--7-7-7-7-7-7-7-7-||
A||-2-2-2-2-2-2-2-2--7-7-7-7-7-7-7-7-||
E||-0-0-0-0-0-0-0-0--5-5-5-5-5-5-5-5-||

e||-0-0-0-0--0-0-0-0--0-||
B||-0-0-0-0--0-0-0-0--0-||
G||-4-4-4-4--4-4-4-4--0-||
D||-5-5-5-5--4-4-4-4--2-||
A||-5-5-5-5--4-4-4-4--2-||


Important: The song above is NOT stored on the Chordie server. The original song is hosted at www.xguitar.com. Chordie works as a search engine and provides on-the-fly formatting. Chordie does not index songs against artists/composers will. To remove this song please click here.

This song is displayed as text-only. Transposing and tuning is only available for chordpro-songs.

Login - add to songbook

Rating click stars to rate

Layout
Accuracy

SHARE PAGE  



You need to log in to post comments