Chordie logo

Razor   Foo Fighters



Band:  Foo Fighters
Song:  Razor
Album: In Your Honour
Tabbed by: Carlson2000

Note: This is based off the tab off ultimate-guitar (mega props to andrewbiles!), but I've modified it - number of time each verse is played and more stuff like that. enjoy peeps.

   Intro
  =======
e|-------------------------------------------------|----------------------------|
g|-------------------------------------------------|----------------------------|
b|-------------------------------------------------|----------------------------|
d|-------------------------------------------------|-----------4p0---7p0---12p0-|
a|-5p0---5p0---5p0---5p0---5p0---5p0---5p0---5p0---|-4p0---7p0------------------|
d|-----0-----0-----0-----0-----0-----0-----0-----0-|-----0---------0-----0------|
                                              x4
e|------------------------|
g|------------------------|
b|------------------------|
d|---11p0---14p0---12p0---|
a|------------------------|
d|-0------0------0------0-|


   Verse
  =======
e|------------------------------------------------------|
g|------------------------------------------------------|
b|------------------------------------------------------| x10
d|-------------4p0---7p0---12p0---11p0---14p0---12p0----|
a|-4p0---7p0--------------------------------------------|
d|-----0-----0-----0-----0------0------0------0------0--|

   Chorus
  ========
e|-----------------------------------------------------------------------------|
b|-----------------------------------------------------------------------------|
g|-----------------------------------------------------------------------------|
d|-7p0---7p0---7p0---7p0---7p0---7p0---7p0---7p0---6p0---6p0---6p0---6p0---6p0-|
a|-----------------------------------------------------------------------------|
d|-----0-----0-----0-----0-----0-----0-----0-----0-----0-----0-----0-----0-----|

e|---------------------------------------------------------------------------|
b|---------------------------------------------------------------------------|
g|---------------------------------------------------------------------------|
d|---6p0---6p0---6p0---9p0---7p0---5p0---4p0---5p0---7p0---9p0---7p0---7p0---|
a|---------------------------------------------------------------------------|
d|-0-----0-----0-----0-----0-----0-----0-----0-----0-----0-----0-----0-----0-|

e|-----------------------------------------------------------------------------|
b|-----------------------------------------------------------------------------|
g|-----------------------------------------------------------------------------|
d|-7p0---7p0---7p0---7p0---7p0---7p0---7p0---7p0---7p0---7p0---7p0---7p0---7p0-|
a|-----------------------------------------------------------------------------|
d|-----0-----0-----0-----0-----0-----0-----0-----0-----0-----0-----0-----0-----|

e|---------------------------------------------------------------------------|
b|---------------------------------------------------------------------------|
g|---------------------------------------------------------------------------|
d|---7p0---7p0---9p0---9p0---9p0---9p0---9p0---9p0---9p0---9p0---9p0---7p0---|
a|---------------------------------------------------------------------------|
d|-0-----0-----0-----0-----0-----0-----0-----0-----0-----0-----0-----0-----0-|

e|-----------------------------------------------------------------------------|
b|-----------------------------------------------------------------------------|
g|-----------------------------------------------------------------------------|
d|-5p0---4p0---5p0---7p0---9p0---7p0---7p0---7p0---7p0---7p0---7p0---7p0---7p0-|
a|-----------------------------------------------------------------------------|
d|-----0-----0-----0-----0-----0-----0-----0-----0-----0-----0-----0-----0-----|

e|---------|
b|---------|
g|---------|
d|---7p0---|
a|---------|
d|-0-----0-|

  Verse x10
 ========

  Chorus
 ========

   Bridge 1
  ==========
e|------------------------------------|
g|------------------------------------|
b|------------------------------------|
d|-11p0---11p0---11p0---11p0---11p0---|
a|------------------------------------|
d|------0------0------0------0------0-|

e|----------------------------------------------------------------------|-------|
b|----------------------------------------------------------------------|-------|
g|----------------------------------------------------------------------|-------|
d|-11p0---11p0---11p0---9p0---9p0---9p0---9p0---9p0---9p0---9p0---9p0---|-7p0---|
a|----------------------------------------------------------------------|-------|
d|------0------0------0-----0-----0-----0-----0-----0-----0-----0-----0-|-----0-|
                                                                   x3
e|-----------------------------------------------------------------------------|
b|-----------------------------------------------------------------------------|
g|-----------------------------------------------------------------------------|
d|-7p0---7p0---7p0---7p0---7p0---7p0---7p0---7p0---7p0---7p0---7p0---7p0---7p0-|
a|-----------------------------------------------------------------------------|
d|-----0-----0-----0-----0-----0-----0-----0-----0-----0-----0-----0-----0-----|

e|---------------|
b|---------------|
g|---------------|
d|---7p0---7p0---|
a|---------------|
d|-0-----0-----0-|

  Verse x8
 ========


   Bridge 2
  ==========
e|-------------------------|--------------------------|
b|-------------------------|--------------------------|
g|-------------------------|--------------------------|
d|-7p0---7p0---7p0---7p0---|-9p0---9p0---9p0----9p0---|
a|-------------------------|--------------------------|
d|-----0-----0-----0-----0-|-----0-----0-----0------0-|
                       x2                       x2
e|-------------------------------------------------------------------|
b|-------------------------------------------------------------------|
g|-------------------------------------------------------------------|
d|-9p0---7p0---5p0---4p0---5p0---7p0---9p0---7p0---7p0---7p0---7p0---|
a|-------------------------------------------------------------------|
d|-----0-----0-----0-----0-----0-----0-----0-----0-----0-----0-----0-|

e|-------------------------------|
b|-------------------------------|
g|-------------------------------|
d|-7p0---7p0---7p0---7p0---7p0---|
a|-------------------------------|
d|-----0-----0-----0-----0-----0-|

  Verse x2
 ========

   Outro
  =======
e|--------------------------|
b|--------------------------|
g|--------------------------| x2
d|-10p0---9p0---7p0---9p0---|
a|--------------------------|
d|------0-----0-----0-----0-|

e|--------------------------------------------------|--------------------------|
b|--------------------------------------------------|--------------------------|
g|--------------------------------------------------|--------------------------|
d|-10p0---9p0---7p0---5p0---4p0---5p0---4p0---2p0---|-10p0---9p0---7p0---9p0---|
a|--------------------------------------------------|--------------------------|
d|------0-----0-----0-----0-----0-----0-----0-----0-|------0-----0-----0-----0-|
                                                                          x2
e|-------------------------------------------------------|
b|-------------------------------------------------------|
g|-------------------------------------------------------|
d|-10p0---9p0---7p0---5p0---4p0---2p0---------2p0---0----|
a|--------------------------------------3p0---------5----|


Important: The song above is NOT stored on the Chordie server. The original song is hosted at www.xguitar.com. Chordie works as a search engine and provides on-the-fly formatting. Chordie does not index songs against artists/composers will. To remove this song please click here.

This song is displayed as text-only. Transposing and tuning is only available for chordpro-songs.

Login - add to songbook

Rating click stars to rate

Layout
Accuracy

SHARE PAGE  



You need to log in to post comments