Up In Arms

Foo Fighters

+-----------------------------------------------------------------+

+-----------------------------------------------------------------+
----------

 CCmaj9AmCmaj9/GFAbC(addG
1:-0-------0-------0-------0-------1////4-------3-
2:-1-------1-------1-------1-------1////4-------1-
3:-0-------0-------2-------0-------2////5-------0-
4:-2-------0-------2-------0-------3////6-------2-
5:-3-------2-------0-------2-------3////6-------3-
6:-------------------------3-------1////4---------


Chorus:
=======
The chord progression is:

 FAbC(addGAm7FAbC(addG
1:-1-----4-----3--------3-----1-----4-----3-
2:-1-----4-----1--------1-----1-----4-----1-
3:-2-----5-----0--------2-----2-----5-----0-
4:-3-----6-----2--------2-----3-----6-----2-
5:-3-----6-----3--------0-----3-----6-----3-
6:-1-----4--------------------1-----4-------


Solo:
=====
N.C.
1:--------------------------------------------------------------
2:------------------------------------------------8-8-----------
3:-9-7---5---5-5h7-5---5------7b--7b--7b--7b--7b-------b7-5---5-
4:-----7---7---------7---7p5--------------------------------7---
5:--------------------------------------------------------------
6:--------------------------------------------------------------


N.C. C5
1:-----------------------------------
2:-----------------------------------
3:-5h7-5----5-------5--5-5-5-5-5-5-5-
4:--------7----7p5--5--5-5-5-5-5-5-5-
5:-----------------------------------
6:-----------------------------------


Lyrics/Song Structure:
======================
---> Drum Intro
---> Play Verse over:
The rain is here and you my dear are still my friend
???
---> Play Chorus over:
I was the one who left you
Always coming back I can never get you girl
Now I am up in arms again
---> Play verse over:
Together now I don't know how it's going to end
My lonely heart falls apart for you to mend
---> Play Chorus over:
I was the one who left you
Always coming back I can never get you girl
Now I am up in arms again
---> Play Solo over Verse
---> Play Chorus over:
I was the one who left you
Always coming back I can never get you girl
Now I am up in arms again
I was the one who left you
Always coming back I can never get you girl
Now I am up in arms again

== Last Updated: June 2, 1996


Ab Am Am7 C Cmaj9 Cmaj9/G F G
variations - click chord images
Transpose chords:
Tuning:
Cool service:
View: Size:
A  A  A
Rating:
Layout:
  • Currently 2/5 Stars.
  • 1
  • 2
  • 3
  • 4
  • 5
 
Accuracy:
  • Currently 1.9/5 Stars.
  • 1
  • 2
  • 3
  • 4
  • 5
 
click stars to rate
Chordie recommends:
Learn how to play guitar at JamPlay.com
Songbook:
Login to add this song to your songbook
Support the artist
Preview/buy this song
MSN Music
Why this non-profit ad?

 
login to add comments/video/corrections