Guitar Tabs, Chords and Lyrics


Wind Up   Foo Fighters



Wind Up- by the Foo Fighters from 'the Colour and the Shape'
tabbed by weevil(sub@servtech.com)

normal tuning (no not dropped d.. even though the heavy verse part) 
              (looks like it should be)

-=intro=-(also played as a lead part over the verse)
e|--------------------------------------------------------
B|--0-0--0--0--0-0-0-0-0--0---0---------------------------
G|--2/4--4--4--4-4-4-4-4--4---3---2---2--2----------------
D|--------------------------------------------------------
A|--------------------------------------------------------
E|--------------------------------------------------------

-=verse=- (parenthesis only played 2nd time)
e|--------------------------------------------------------
B|--------------------------------------------------------
G|--------------------------------------------------------
D|---------------------------------------7----------------
A|--9--9--9--7---8--9----7--8---9--8--7--5--(7)-----------
E|--7--7--7--5---6--7----5--6---7--6--5-----(5)-----------

-=chorus=-
e|--------------------------------------------------------
B|--------------------------------------------------------
G|-4-4-4-4-4-4-4-4-6-6-6-6-6-6-6-6-7-7-7-7-7-7-7-7--------
D|-4-4-4-4-4-4-4-4-6-6-6-6-6-6-6-6-7-7-7-7-7-7-7-7--------
A|-2-2-2-2-2-2-2-2-4-4-4-4-4-4-4-4-5-5-5-5-5-5-5-5--------
E|--------------------------------------------------------

e|--------------------------------------------------------
B|--------------------------------------------------------
G|-9-9-9-9-9-9-8-7----------------------------------------
D|-9-9-9-9-9-9-8-7----------------------------------------
A|-7-7-7-7-7-7-6-5----------------------------------------
E|--------------------------------------------------------

-=extra heavy verse part=- (comes right after first chorus)
e|--------------------------------------------------------
B|--------------------------------------------------------
G|-4-4-4--2--3---4--2--3--4---3--2-----7------------------
D|-4-4-4--2--3---4--2--3--4---3--2-----7--(7)-------------
A|-2-2-2--0--1---2--0--1--2---1--0-----5--(7)-------------
E|-2-2-2--0--1---2--0--1--2---1--0-----5--(5)-------------

-=rhythm guitar under solo=- 
e|--------------------------------------------------------
B|--------------------------------------------------------
G|------------------------7-------------------------------
D|-5-5-5-5--7--9-9---9-9--7---4--4--7--4-2-3-4------------
A|-5-5-5-5--7--9-9---9-9--5---4--4--7--4-2-3-4------------
E|-3-3-3-3--5--7-7---7-7------2--2--5--2-0-1-2------------
the above is played 4 times then a few of the following played 
in a hard to distinguish rhythm while dave sings
e|--------------------------------------------------------
B|--------------------------------------------------------
G|--------------------------------------------------------
D|-7----2--3--4-4----7--2--3-4---7--2-3--4--7--2--3--4-4--
A|-7----2--3--4-4----7--2--3-4---7--2-3--4--7--2--3--4-4--
E|-5----0--1--2-2----5--0--1-2---5--0-1--2--5--0--1--2-2--

-=guitar solo(sort of)=-
e|--------------------------------------------------------
B|--------------------------------------------------------
G|-4--6--8--11-3--2--3--4--6--8-----11-3--2--3------------
D|--------------------------------------------------------
A|-2--4--6--9--1--0--1--2--4--6-----9--1--0--1------------
E|--------------------------------------------------------

e|--------------------------------------------------------
B|--------------------------------------------------------
G|--7/9-7----9--8------------------7/9-7----9--8----------
D|-------------------9-6-11-9-8---------------------------
A|--5/7-5----7--6------------------5/7-5----7--6----------
E|-------------------7-4-9--7-6---------------------------
   farewell my sweet paremania    farewell my sweet 

e|-----------[-w-a-h---------------------------------]----
B|-------------------------------8--8--8--8---8--8--------
G|-----6-8-9-9-9-9-9-9-9-9-------10b11-11-11--11r10-9-----
D|--9-6---------------------------------------------------
A|-----4-6-7-7-7-7-7-7-7-7--------------------------------
E|--7-4---------------------------------------------------
    paremania (wah pedal gradually pushed forward then manipulate)


Important: The song above is NOT stored on the Chordie server. The original song is hosted at www.xguitar.com. Chordie works as a search engine and provides on-the-fly formatting. Chordie does not index songs against artists/composers will. To remove this song please click here.

This song is displayed as text-only. Transposing and tuning is only available for chordpro-songs.

Login - add to songbook

Rating click stars to rate

Layout
Accuracy

SHARE PAGE  




You need to log in to post comments