Guitar Tabs, Chords and Lyrics


Ain't It The Life   Foo Fighters



Foo Fighters - Ain't It The Life
(Normal Tuning)
Intro
    Gtr 1
e-|-------------------------|-------------------------|
B-|----------------8-----8--|-10-10-10-10-8-----------|
G-|------------5/9---9-7----|---------------7---------|
D-|-------------------------|-------------------------|
A-|-------------------------|-------------------------|
E-|-------------------------|-------------------------|
  |
  | Gtr 2
  |
e-|-0-0---------------------|--------3-3-3-3-3-3-3----|
B-|-1---1-------------------|--------3-3-3-3-3-3-3----|
G-|-0-----0-----------------|--------0-0-0-0-0-0-0----|
D-|-2-------2---------------|--------0-0-0-0-0-0-0----|
A-|-3---------3-------------|--------2-2-2-2-2-2-2----|
E-|-------------------------|-0-0--2-3-3-3-3-3-3-3----|
    

Verse
    Gtr 1
E-|----------------------------------------------------
B-|----------------------------------------------------
G-|----------------------------------------------------
D-|----------------------------------------------------
A-|----------------------------------------------------
E-|----------------------------------------------------
  |
  |
  | Gtr 2
E-|-------3-----3-----3-----3------0-----0-----0-----0-
B-|---------1-----1-----1------------1-----1-----1-----
G-|-----0-----0-----0-----0------0-----0-----0-----0---
D-|---2------------------------2-----------------------
A-|-3------------------------0-------------------------
E-|----------------------------------------------------

    Gtr 1
E-|---------------------3-----3-------0--------------------
B-|-----------------5-------5-------8---8---10----10----10-
G-|---------------5---5---5-----5/9---9--10----10----10----
D-|--------------------------------------------------------
A-|--------------------------------------------------------
E-|--------------------------------------------------------
  |
  | Gtr 2
E-|----------------0-0-0--0-0--0-0-0-0-0--1-1-1--1-1-1-1-1-
B-|----------------1-1-1--1-1--1-1-1-1-1--1-1-1--1-1-1-1-1-
G-|-5-5-5-5-5-5/7--0-0-0--0-0--0-0-0-0-0--3-2-2--2-2-2-2-2-
D-|-6-6-6-6-6-6/8--2-2-2--2-2--0-0-0-0-0--x-3-3--3-3-3-3-3-
A-|-6-6-6-6-6-6/8--3-3-3--3-3--2-2-2-2-2--3-3-3--3-3-3-3-3-
E-|-4-4-4-4-4-4/8-------------------------1-1-1--1-1-1-1-1-
    Gtr 1
E-|-8-----7-----8-----7------8-----7-----8-----8-------
B-|---8-----8-----8-----8------8-----8-----8-----------
G-|-----9-----9-----9-----9------9-----9-----9---------
D-|----------------------------------------------------
A-|----------------------------------------------------
E-|----------------------------------------------------
  |
  |
  | Gtr 2
E-|-------3-----3-----3-----3------0-----0-----0-----0-
B-|---------1-----1-----1------------1-----1-----1-----
G-|-----0-----0-----0-----0------0-----0-----0-----0---
D-|---2------------------------2-----------------------
A-|-3------------------------0-------------------------
E-|----------------------------------------------------

    Gtr 1
E-|---------------------3-----3-------0--------------------
B-|-----------------5-------5-------8---8---10----10----10-
G-|---------------5---5---5-----5/9---9--10----10----10----
D-|--------------------------------------------------------
A-|--------------------------------------------------------
E-|--------------------------------------------------------
  |
  | Gtr 2
E-|----------------0-0-0--0-0--0-0-0-0-0--1-1-1--1-1-1-1-1-
B-|----------------1-1-1--1-1--1-1-1-1-1--1-1-1--1-1-1-1-1-
G-|-5-5-5-5-5-5/7--0-0-0--0-0--0-0-0-0-0--3-2-2--2-2-2-2-2-
D-|-6-6-6-6-6-6/8--2-2-2--2-2--0-0-0-0-0--x-3-3--3-3-3-3-3-
A-|-6-6-6-6-6-6/8--3-3-3--3-3--2-2-2-2-2--3-3-3--3-3-3-3-3-
E-|-4-4-4-4-4-4/8-------------------------1-1-1--1-1-1-1-1-
Pre-Chorus
   Gtr 1 & 2
E-|-3-3-3-3-3-3-3-3-3-3-3-3-3-3-3-3-0-0-0-0-0-0-0-0-0-0-0-0-0-0-0-0-
B-|-3-3-3-3-3-3-3-3-3-3-3-3-3-3-3-3-1-1-1-1-1-1-1-1-1-1-1-1-1-1-1-1-
G-|-0-0-0-0-0-0-0-0-0-0-0-0-0-0-0-0-0-0-0-0-0-0-0-0-0-0-0-0-0-0-0-0-
D-|-0-0-0-0-0-0-0-0-0-0-0-0-0-0-0-0-2-2-2-2-0-0-0-0-2-2-2-2-2-2-2-2-
A-|-2-2-2-2-2-2-2-2-2-2-2-2-2-2-2-2-3-3-3-3-2-2-2-2-0-0-0-0-0-0-0-0-
E-|-3-3-3-3-3-3-3-3-3-3-3-3-3-3-3-3---------------------------------

    Gtr 1
E-|---------------------------------
B-|----------------3-4-3------------
G-|--------------5--------5---------
D-|---------------------------------
A-|---------------------------------
E-|---------------------------------
  |
  | Gtr 2
E-|-1-----------------------1-1-1-1-
B-|-1-----------------------1-1-1-1-
G-|-1-----------------------1-1-1-1-
D-|-3-----------------------3-3-3-3-
A-|-3-----------------------3-3-3-3-
E-|-1-----------------------1-1-1-1-
Verse 2
E-|-8-----7-----8-----7------8-----7-----8-----8-------
B-|---8-----8-----8-----8------8-----8-----8-----------
G-|-----9-----9-----9-----9------9-----9-----9---------
D-|----------------------------------------------------
A-|----------------------------------------------------
E-|----------------------------------------------------
  |
  |
  | Gtr 2
E-|-------3-----3-----3-----3------0-----0-----0-----0-
B-|---------1-----1-----1------------1-----1-----1-----
G-|-----0-----0-----0-----0------0-----0-----0-----0---
D-|---2------------------------2-----------------------
A-|-3------------------------0-------------------------
E-|----------------------------------------------------

    Gtr 1
E-|---------------------3-----3-------0--------------------
B-|-----------------5-------5-------8---8---10----10----10-
G-|---------------5---5---5-----5/9---9--10----10----10----
D-|--------------------------------------------------------
A-|--------------------------------------------------------
E-|--------------------------------------------------------
  |
  | Gtr 2
E-|----------------0-0-0--0-0--0-0-0-0-0--1-1-1--1-1-1-1-1-
B-|----------------1-1-1--1-1--1-1-1-1-1--1-1-1--1-1-1-1-1-
G-|-5-5-5-5-5-5/7--0-0-0--0-0--0-0-0-0-0--3-2-2--2-2-2-2-2-
D-|-6-6-6-6-6-6/8--2-2-2--2-2--0-0-0-0-0--x-3-3--3-3-3-3-3-
A-|-6-6-6-6-6-6/8--3-3-3--3-3--2-2-2-2-2--3-3-3--3-3-3-3-3-
E-|-4-4-4-4-4-4/8-------------------------1-1-1--1-1-1-1-1-

E-|-8-----7-----8-----7------8-----7-----8-----8-------
B-|---8-----8-----8-----8------8-----8-----8-----------
G-|-----9-----9-----9-----9------9-----9-----9---------
D-|----------------------------------------------------
A-|----------------------------------------------------
E-|----------------------------------------------------
  |
  |
  | Gtr 2
E-|-------3-----3-----3-----3------0-----0-----0-----0-
B-|---------1-----1-----1------------1-----1-----1-----
G-|-----0-----0-----0-----0------0-----0-----0-----0---
D-|---2------------------------2-----------------------
A-|-3------------------------0-------------------------
E-|----------------------------------------------------

    Gtr 1
E-|---------------------3-----3-------0--------------------
B-|-----------------5-------5-------8---8---10----10----10-
G-|---------------5---5---5-----5/9---9--10----10----10----
D-|--------------------------------------------------------
A-|--------------------------------------------------------
E-|--------------------------------------------------------
  |
  | Gtr 2
E-|----------------0-0-0--0-0--0-0-0-0-0----1-1--1-1-1-1-1-
B-|----------------1-1-1--1-1--1-1-1-1-1----1-1--1-1-1-1-1-
G-|-5-5-5-5-5-5/7--0-0-0--0-0--0-0-0-0-0----2-2--2-2-2-2-2-
D-|-6-6-6-6-6-6/8--2-2-2--2-2--0-0-0-0-0--3-3-3--3-3-3-3-3-
A-|-6-6-6-6-6-6/8--3-3-3--3-3--2-2-2-2-2--3-3-3--3-3-3-3-3-
E-|-4-4-4-4-4-4/8-------------------------1-1-1--1-1-1-1-1-
Pre-Chorus
   Gtr 1 & 2
E-|-3-3-3-3-3-3-3-3-3-3-3-3-3-3-3-3-0-0-0-0-0-0-0-0-0-0-0-0-0-0-0-0-
B-|-3-3-3-3-3-3-3-3-3-3-3-3-3-3-3-3-1-1-1-1-1-1-1-1-1-1-1-1-1-1-1-1-
G-|-0-0-0-0-0-0-0-0-0-0-0-0-0-0-0-0-0-0-0-0-0-0-0-0-0-0-0-0-0-0-0-0-
D-|-0-0-0-0-0-0-0-0-0-0-0-0-0-0-0-0-2-2-2-2-0-0-0-0-2-2-2-2-2-2-2-2-
A-|-2-2-2-2-2-2-2-2-2-2-2-2-2-2-2-2-3-3-3-3-2-2-2-2-0-0-0-0-0-0-0-0-
E-|-3-3-3-3-3-3-3-3-3-3-3-3-3-3-3-3---------------------------------

    Gtr 1
E-|---------------------------------
B-|----------------3-4-3------------
G-|--------------5--------5---------
D-|---------------------------------
A-|---------------------------------
E-|---------------------------------
  |
  | Gtr 2
E-|-1-----------------------1-1-1-1-
B-|-1-----------------------1-1-1-1-
G-|-1-----------------------1-1-1-1-
D-|-3-----------------------3-3-3-3-
A-|-3-----------------------3-3-3-3-
E-|-1-----------------------1-1-1-1-
Chorus
    Gtr 1
E-|-------3---------0-----------3---------0---------1-3-1-----0---0-------0-----------
B-|---5-----5---1-----1-----5-----5---1-----1-----1---------3---3-------3---3-------1-
G-|-5---5-----2---2-----2-5---5-----2---2-----2-3---------5-----------0---------0-2---
D-|-----------------------------------------------------------------2---------3-------
A-|-----------------------------------------------------------------------------------
E-|-----------------------------------------------------------------------------------
  |
  | Gtr 2
E-|-0---------0-----------0---------0-----------1---------0---------0---------1-------
B-|-1---------1-----------1---------1-----------1---------1---------1---------1-------
G-|-0---------0-----------0---------0-----------1---------0---------0---------2-------
D-|-2---------2-----------2---------2-----------3---------2---------0---------3-------
A-|-3---------0-----------3---------3-----------3---------3---------2---------3-------
E-|---------------------------------------------1-----------------------------1-------
    Gtr 1
E-|-------3---------0-----------3---------0---------1-3-1-----0---0-------0-----------
B-|---5-----5---1-----1-----5-----5---1-----1-----1---------3---3-------3---3-------1-
G-|-5---5-----2---2-----2-5---5-----2---2-----2-3---------5-----------0---------0-2---
D-|-----------------------------------------------------------------2---------3-------
A-|-----------------------------------------------------------------------------------
E-|-----------------------------------------------------------------------------------
  |
  | Gtr 2
E-|-0---------0-----------0---------0-----------1---------0---------0---------1-------
B-|-1---------1-----------1---------1-----------1---------1---------1---------1-------
G-|-0---------0-----------0---------0-----------1---------0---------0---------2-------
D-|-2---------2-----------2---------2-----------3---------2---------0---------3-------
A-|-3---------0-----------3---------3-----------3---------3---------2---------3-------
E-|---------------------------------------------1-----------------------------1-------
Interlude
    Gtr 1
e-|-------------------------|-------------------------|
B-|----------------8-----8--|-10-10-10-10-8-----------|
G-|------------5/9---9-7----|---------------7---------|
D-|-------------------------|-------------------------|
A-|-------------------------|-------------------------|
E-|-------------------------|-------------------------|
  |
  | Gtr 2
  |
e-|-0-0---------------------|--------3-3-3-3-3-3-3----|
B-|-1---1-------------------|--------3-3-3-3-3-3-3----|
G-|-0-----0-----------------|--------0-0-0-0-0-0-0----|
D-|-2-------2---------------|--------0-0-0-0-0-0-0----|
A-|-3---------3-------------|--------2-2-2-2-2-2-2----|
E-|-------------------------|-0-0--2-3-3-3-3-3-3-3----|
Solo
e-|-------12-----------------12----------------------------------------------
B-|-12h13----13-12-13--12h13----13-12-13--8/10/8----------8/10/8-------------
G-|----------------------------------------------7-7/9-9---------7-7/9-9/7/5-
D-|--------------------------------------------------------------------------
A-|--------------------------------------------------------------------------
E-|--------------------------------------------------------------------------
  |
  | Gtr 2
E-|-0-0-0-0-0-0-0-0-0-0-0-0-0-0-0-0--0-0-0-0-0-0-0-0-0-0-0-0-0-0-0-0-
B-|-1-1-1-1-1-1-1-1-1-1-1-1-1-1-1-1--1-1-1-1-1-1-1-1-1-1-1-1-1-1-1-1-
G-|-0-0-0-0-0-0-0-0-0-0-0-0-0-0-0-0--0-0-0-0-0-0-0-0-0-0-0-0-0-0-0-0-
D-|-2-2-2-2-2-2-2-2-2-2-2-2-2-2-2-2--2-2-2-2-2-2-2-2-2-2-2-2-2-2-2-2-
A-|-3-3-3-3-3-3-3-3-3-3-3-3-3-3-3-3--0-0-0-0-0-0-0-0-0-0-0-0-0-0-0-0-
E-|------------------------------------------------------------------
e-|-----------------------8---8---8-7-7-7-------------------
B-|---------------------8---8-------------10-8-10-----------
G-|-5-5-5-5-5-7-----7/9---------------------------9b11b9b11-
D-|-7-7-7-7-7-9---------------------------------------------
A-|---------------------------------------------------------
E-|---------------------------------------------------------
  |
  | Gtr 2
E-|----------------0-0-0--0-0--0-0-0-0-0--1-1-1--1-1-1-1-1-
B-|----------------1-1-1--1-1--1-1-1-1-1--1-1-1--1-1-1-1-1-
G-|-5-5-5-5-5-5/7--0-0-0--0-0--0-0-0-0-0--3-2-2--2-2-2-2-2-
D-|-6-6-6-6-6-6/8--2-2-2--2-2--0-0-0-0-0--x-3-3--3-3-3-3-3-
A-|-6-6-6-6-6-6/8--3-3-3--3-3--2-2-2-2-2--3-3-3--3-3-3-3-3-
E-|-4-4-4-4-4-4/6-------------------------1-1-1--1-1-1-1-1-

e-|------------------------------------------------------------------
B-|-8-8-8-8-6--5--8-8-8-8-6--5-------5-5-5-5-5-3--1--5-5-5-5-5-3--1--
G-|-9-9-9-9-7--5--9-9-9-9-7--5-------5-5-5-5-5-4--2--5-5-5-5-5-4--2--
D-|------------------------------------------------------------------
A-|------------------------------------------------------------------
E-|------------------------------------------------------------------
  |
  | Gtr 2
E-|-0-0-0-0-0-0-0-0-0-0-0-0-0-0-0-0--0-0-0-0-0-0-0-0-0-0-0-0-0-0-0-0-
B-|-1-1-1-1-1-1-1-1-1-1-1-1-1-1-1-1--1-1-1-1-1-1-1-1-1-1-1-1-1-1-1-1-
G-|-0-0-0-0-0-0-0-0-0-0-0-0-0-0-0-0--0-0-0-0-0-0-0-0-0-0-0-0-0-0-0-0-
D-|-2-2-2-2-2-2-2-2-2-2-2-2-2-2-2-2--2-2-2-2-2-2-2-2-2-2-2-2-2-2-2-2-
A-|-3-3-3-3-3-3-3-3-3-3-3-3-3-3-3-3--0-0-0-0-0-0-0-0-0-0-0-0-0-0-0-0-
E-|------------------------------------------------------------------

    Gtr 1
E-|--------------------------------------------------------
B-|---------------------------------------1----------------
G-|----------------------------4-2-0---0h2-----------------
D-|----------------------------------2---------------------
A-|--------------------------------------------------------
E-|--------------------------------------------------------
  |
  | Gtr 2
E-|----------------0-0-0--0-0--0-0-0-0-0--1-1-1--1-1-1-1-1-
B-|----------------1-1-1--1-1--1-1-1-1-1--1-1-1--1-1-1-1-1-
G-|-5-5-5-5-5-5/7--0-0-0--0-0--0-0-0-0-0--3-2-2--2-2-2-2-2-
D-|-6-6-6-6-6-6/8--2-2-2--2-2--0-0-0-0-0--x-3-3--3-3-3-3-3-
A-|-6-6-6-6-6-6/8--3-3-3--3-3--2-2-2-2-2--3-3-3--3-3-3-3-3-
E-|-4-4-4-4-4-4/6-------------------------1-1-1--1-1-1-1-1-

                   
Pre-Chorus
   Gtr 1 & 2
E-|-3-3-3-3-3-3-3-3-3-3-3-3-3-3-3-3-0-0-0-0-0-0-0-0-0-0-0-0-0-0-0-0-
B-|-3-3-3-3-3-3-3-3-3-3-3-3-3-3-3-3-1-1-1-1-1-1-1-1-1-1-1-1-1-1-1-1-
G-|-0-0-0-0-0-0-0-0-0-0-0-0-0-0-0-0-0-0-0-0-0-0-0-0-0-0-0-0-0-0-0-0-
D-|-0-0-0-0-0-0-0-0-0-0-0-0-0-0-0-0-2-2-2-2-0-0-0-0-2-2-2-2-2-2-2-2-
A-|-2-2-2-2-2-2-2-2-2-2-2-2-2-2-2-2-3-3-3-3-2-2-2-2-0-0-0-0-0-0-0-0-
E-|-3-3-3-3-3-3-3-3-3-3-3-3-3-3-3-3---------------------------------

    Gtr 1
E-|---------------------------------
B-|----------------3-4-3------------
G-|--------------5--------5---------
D-|---------------------------------
A-|---------------------------------
E-|---------------------------------
  |
  | Gtr 2
E-|-1-----------------------1-1-1-1-
B-|-1-----------------------1-1-1-1-
G-|-1-----------------------1-1-1-1-
D-|-3-----------------------3-3-3-3-
A-|-3-----------------------3-3-3-3-
E-|-1-----------------------1-1-1-1-
Chorus
    Gtr 1
E-|-------3---------0-----------3---------0---------1-3-1-----0---0-------0-----------
B-|---5-----5---1-----1-----5-----5---1-----1-----1---------3---3-------3---3-------1-
G-|-5---5-----2---2-----2-5---5-----2---2-----2-3---------5-----------0---------0-2---
D-|-----------------------------------------------------------------2---------3-------
A-|-----------------------------------------------------------------------------------
E-|-----------------------------------------------------------------------------------
  |
  | Gtr 2
E-|-0---------0-----------0---------0-----------1---------0---------0---------1-------
B-|-1---------1-----------1---------1-----------1---------1---------1---------1-------
G-|-0---------0-----------0---------0-----------1---------0---------0---------2-------
D-|-2---------2-----------2---------2-----------3---------2---------0---------3-------
A-|-3---------0-----------3---------3-----------3---------3---------2---------3-------
E-|---------------------------------------------1-----------------------------1-------
  |
  | Gtr 3
e-|-----------------------------------------------------------------------------------
B-|-8-8-8-8-6-5-8-8-8-8-6-5-8-8-8-8-6-5-8-8-8-8-6-5-----------------------------------
G-|-9-9-9-9-7-5-9-9-9-9-7-5-9-9-9-9-7-5-9-9-9-9-7-5-----------------------------------
D-|-----------------------------------------------------------------------------------
A-|-----------------------------------------------------------------------------------
E-|-----------------------------------------------------------------------------------
    Gtr 1
E-|-------3---------0-----------3---------0---------1-3-1-----0---0-------0-----------
B-|---5-----5---1-----1-----5-----5---1-----1-----1---------3---3-------3---3-------1-
G-|-5---5-----2---2-----2-5---5-----2---2-----2-3---------5-----------0---------0-2---
D-|-----------------------------------------------------------------2---------3-------
A-|-----------------------------------------------------------------------------------
E-|-----------------------------------------------------------------------------------
  |
  | Gtr 2
E-|-0---------0-----------0---------0-----------1---------0---------0---------1-------
B-|-1---------1-----------1---------1-----------1---------1---------1---------1-------
G-|-0---------0-----------0---------0-----------1---------0---------0---------2-------
D-|-2---------2-----------2---------2-----------3---------2---------0---------3-------
A-|-3---------0-----------3---------3-----------3---------3---------2---------3-------
E-|---------------------------------------------1-----------------------------1-------
  |
  | Gtr 3
e-|-----------------------------------------------------------------------------------
B-|-8-8-8-8-6-5-8-8-8-8-6-5-8-8-8-8-6-5-8-8-8-8-6-5-----------------------------------
G-|-9-9-9-9-7-5-9-9-9-9-7-5-9-9-9-9-7-5-9-9-9-9-7-5-----------------------------------
D-|-----------------------------------------------------------------------------------
A-|-----------------------------------------------------------------------------------
E-|-----------------------------------------------------------------------------------
Outro (Fade out)
e-|------------------------------------------------------------------
B-|-8-8-8-8-6--5--8-8-8-8-6--5-------8-8-8-8-6--5--8-8-8-8-6--5------
G-|-9-9-9-9-7--5--9-9-9-9-7--5-------9-9-9-9-7--5--9-9-9-9-7--5------
D-|------------------------------------------------------------------
A-|------------------------------------------------------------------
E-|------------------------------------------------------------------
  |
  | Gtr 2
E-|-0-0-0-0-0-0-0-0-0-0-0-0-0-0-0-0--0-0-0-0-0-0-0-0-0-0-0-0-0-0-0-0-
B-|-1-1-1-1-1-1-1-1-1-1-1-1-1-1-1-1--1-1-1-1-1-1-1-1-1-1-1-1-1-1-1-1-
G-|-0-0-0-0-0-0-0-0-0-0-0-0-0-0-0-0--0-0-0-0-0-0-0-0-0-0-0-0-0-0-0-0-
D-|-2-2-2-2-2-2-2-2-2-2-2-2-2-2-2-2--2-2-2-2-2-2-2-2-2-2-2-2-2-2-2-2-
A-|-3-3-3-3-3-3-3-3-3-3-3-3-3-3-3-3--0-0-0-0-0-0-0-0-0-0-0-0-0-0-0-0-
E-|------------------------------------------------------------------
e-|------------------------------------------------------------------
B-|-8-8-8-8-6--5--8-8-8-8-6--5-------8-8-8-8-6--5--8-8-8-8-6--5------
G-|-9-9-9-9-7--5--9-9-9-9-7--5-------9-9-9-9-7--5--9-9-9-9-7--5------
D-|------------------------------------------------------------------
A-|------------------------------------------------------------------
E-|------------------------------------------------------------------
  |
  | Gtr 2
E-|-0-0-0-0-0-0-0-0-0-0-0-0-0-0-0-0--0-0-0-0-0-0-0-0-0-0-0-0-0-0-0-0-
B-|-1-1-1-1-1-1-1-1-1-1-1-1-1-1-1-1--1-1-1-1-1-1-1-1-1-1-1-1-1-1-1-1-
G-|-0-0-0-0-0-0-0-0-0-0-0-0-0-0-0-0--0-0-0-0-0-0-0-0-0-0-0-0-0-0-0-0-
D-|-2-2-2-2-2-2-2-2-2-2-2-2-2-2-2-2--2-2-2-2-2-2-2-2-2-2-2-2-2-2-2-2-
A-|-3-3-3-3-3-3-3-3-3-3-3-3-3-3-3-3--0-0-0-0-0-0-0-0-0-0-0-0-0-0-0-0-
E-|------------------------------------------------------------------

_______________________


Important: The song above is NOT stored on the Chordie server. The original song is hosted at www.xguitar.com. Chordie works as a search engine and provides on-the-fly formatting. Chordie does not index songs against artists/composers will. To remove this song please click here.

This song is displayed as text-only. Transposing and tuning is only available for chordpro-songs.

Login - add to songbook

Rating click stars to rate

Layout
Accuracy

SHARE PAGE  




You need to log in to post comments