Guitar Tabs, Chords and Lyrics


Phat    Forbidden



pHat by Forbidden
                     tabbed by Aaron Richards

  does anybody besides me listen to Forbidden? unfortunately they are no
  longer a band but they have some really good shit on CD. this song is
  really heavy and some of it's hard to hear, but i did my best.  all the
  guitar is basically a variation on two different riffs.  Tune down about
  one whole step. oh yeah, and part of this song has a weird time sig.

  Gtr. 1- left spkr.

            play  3x                        4th time
  |---------------------------------|------------------------------------|
  |---------------------------------|------------------------------------|
  |---------------------------------|------------------------------------|
  |---------------------------------|------------------------------------|
  |-2-----2---2---2-----2---2---1-2-|-2-----2---2---2---2-2-2-2-2-2-2----|
  |-0-0-0-0-0-0-0-0-0-0-0-0-0-0-----|-0-0-0-0-0-0-0-0-0------------------|
      . .   .   .   . .   .   .         . .   .   .   .

  |---------------------------------|------------------------------------|
  |---------------------------------|------------------------------------|
  |---------------------------------|------------------------------------|
  |---------------------------------|------------------------------------|
  |-2-----2---2---2-----2---2---1-2-|-2-----2---2---2-----2---2---1-0----|
  |-0-0-0-0-0-0-0-0-0-0-0-0-0-0-----|-0-0-0-0-0-0-0-0-0-0-0-0-0-0--------|
      . .   .   .   . .   .   .         . .   .   .   . .   .   .

  |---------------------------------|------------------------------------|
  |---------------------------------|------------------------------------|
  |---------------------------------|------------------------------------|
  |---------------------------------|------------------------------------|
  |-2-----2---2---2-----2---2---1-2-|-2-----2---2---2-----2--------------|
  |-0-0-0-0-0-0-0-0-0-0-0-0-0-0-----|-0-0-0-0-0-0-0-0-0-0-0-0-2-0-2-1----|
      . .   .   .   . .   .   .         . .   .   .   . .   .   .

  Gtr.2 plays the same thing as gtr. 1 for this 1st part. there is also a
  gtr. 3 ( overdubbed) that plays something like this:

     play this 3x                     4th time
  |----------------------------------|------------------------------------|
  |----------------------------------|------------------------------------|
  |-9-----9---9---9-----9---9---9-10-|-9-----9---9---9---9-9-9-9-9-9-9----|
  |-8-----8---8---8-----8---8---8-9--|-8-----8---8---8---8-8-8-8-8-8-8----|
  |-7-----7---7---7-----7---7---7-8--|-7-----7---7---7---7-7-7-7-7-7-7----|
  |---0-0---0---0---0-0---0---0------|---0-0---0---0---0------------------|
      . .   .   .   . .   .   .          . .   .   .   .

  |----------------------------------|------------------------------------|
  |----------------------------------|------------------------------------|
  |-9-----9---9---9-----9---9---9-10-|-9-----9---9---9-----9---9---9-8----|
  |-8-----8---8---8-----8---8---8-9--|-8-----8---8---8-----8---8---8-7----|
  |-7-----7---7---7-----7---7---7-8--|-7-----7---7---7-----7---7---7-6----|
  |---0-0---0---0---0-0---0---0------|---0-0---0---0---0-0---0---0--------|
      . .   .   .   . .   .   .          . .   .   .   .

   repeat above line , then:

   gtr.1
  |----------------------------------------------------------------------|
  |----------------------------------------------------------------------|
  |-----------------------------8-7-x-6-7-x-8-7-x-6-7--------------------|
  |-----------------------------7-6-x-5-6-x-7-6-x-5-6--x-x-x-------------|
  |-----------------------------6-5-x-4-5-x-6-5-x-4-5--x-x-x-------------|
  |-----------------------0-0-0------------------------x-x-x-------------|
  |                       . . .
  |
  | gtr. 2 (right spkr.)
  |----------------------------------------------------------------------|
  |----------------------------------------------------------------------|
  |-8-7-x-6-7-x-8-7-x-6-7-------8-7-x-6-7-x-8-7-x-6-7--------------------|
  |-7-6-x-5-6-x-7-6-x-5-6-------7-6-x-5-6-x-7-6-x-5-6--x-x-x-------------|
  |-6-5-x-4-5-x-6-5-x-4-5-------6-5-x-4-5-x-6-5-x-4-5--x-x-x-------------|
  |-----------------------0-0-0------------------------x-x-x-------------|
                          . . .

   riff a               then gtr. 1 plays riff a1, gtr. 2 plays a1 w/fill 1

                                         riff a1
  |------------------------------------|---------------------------------|
  |------------------------------------|---------------------------------|
  |------------------------------------|---------------------------------|
  |------------------------------------|---------------------------------|
  |-5-4~---3-4-4----5-4~---3-4-4-------|-5-4~---3-4-4---5-4~---3-4-------|
  |-3-2~-0-1-2-2--0-3-2~-0-1-2-2-0-0-0-|-3-2~-0-1-2-2-0-3-2~-0-1-2-------|
         .        .      .       . . .

    fill 1
  |-------------|
  |-------------|   then play riff a, then gtr.1-riff a1, gtr.2- a1 w/fill2
  |-*-*-*-------|
  |-5-5-5-------|
  |-------------|
  |-------------|

   fill 2
  |---------------|
  |---------------|
  |---------------|
  |---------------|
  |-------3-------|
  |-0-1-2---2-1-0-|

    verse 1 (gtr. 1) play whole thing twice

      riff b
  |---------------------------------|------------------------------------|
  |---------------------------------|------------------------------------|
  |---------------------------------|------------------------------------|
  |---------------------------------|------------------------------------|
  |-2-----2---2---2-----2---2---1-2-|-2-----2---2---2-----2---2---1-0----|
  |-0-0-0-0-0-0-0-0-0-0-0-0-0-0-----|-0-0-0-0-0-0-0-0-0-0-0-0-0-0--------|
      . .   .   .   . .   .   .         . .   .   .   . .   .   .

  |---------------------------------|------------------------------------|
  |---------------------------------|------------------------------------|
  |---------------------------------|------------------------------------|
  |---------------------------------|------------------------------------|
  |-2-----2---2---2-----2---2---1-2-|-2-----2---2---2-----2--------------|
  |-0-0-0-0-0-0-0-0-0-0-0-0-0-0-----|-0-0-0-0-0-0-0-0-0-0-0-0-2-0-2-1----|
      . .   .   .   . .   .   .         . .   .   .   . .   .   .

   for the verse, gtr. 2 plays the same thing as gtr. 1, except w/out the
   palm muting and using a flanger or some other effect
   chorus 1:  gtr. 1- riff a, riff a1   gtr.2- riffa, riff a1 w/ fill 2
   verse 2 ( same as verse 1)
   chorus 2: gtr. 1- riff a, riff a1, riff a, riff a1
             gtr. 2- riff a, riff a1 w/fill 1, riff a, riff a1 w/ fill 2

    both gtrs.
  |----------------------------------------------------------------------
  |----------------------------------------------------------------------
  |----------------------------------------------------------------------
  |----------------------------------------------------------------------
  |----------------------------------------------------------------------
  |--0-0-0-0-0-0-0-0-0-0-0-0-0-0-0-0-0-0-0-0-0-0-0-0-0-0-0-0-0-0-0-0-0-0-
     . . . . . . . . . . . . . . . . . . . . . . gradually release p.m.

  ----------------------------------------------------------------------|
  ----------------------------------------------------------------------|
  ----------------------------------------------------------------------|
  ----------------------------------------------------------------------|
  -----------------------------0-6-5-0-7-7-7-0-8-8-8-0-10-10-10---------|
  -0-0-0-0-0-0-0-0-0-0-0-0-0-0------------------------------------------|

     play this 3 more times ("punch down the clock, our music is the
     paycheck...")

     riff c
  |----------------------------------------------------------------------|
  |----------------------------------------------------------------------|
  |----------------------------------------------------------------------|
  |----------------------------------------------------------------------|
  |---------------------------------0-6-5-0-7-7-7-0-8-8-8-0-10-10-10-----|
  |-0-0-0-0-0-0-0-0-0-0-0-0-0-0-0-0--------------------------------------|
    . . . . . . . . . . . . . . . .

     i'm not gonna bother writing exactly how the rest goes, cos it's just
     alot of riffs a & a1 and putting in the fills 1 & 2 in some places ,
     except for verse 3 which is the same as verse 1 and 2. this song ends
     on a

  |----------------------------------------------------------------------|
  |----------------------------------------------------------------------|
  |--8-7-x-6-7-x-8-7-x-6-7-----------------------------------------------|
  |--7-6-x-5-6-x-7-6-x-5-6-----------------------------------------------|
  |--6-5-x-4-5-x-6-5-x-4-5-----------------------------------------------|
  |----------------------------------------------------------------------|

   * * *  - natural harmonic
   . . .  - palm mute
   x x x  - left hand string mute

   there.  I hope i didn't bastardize this song too badly in tabbing it.


Important: The song above is NOT stored on the Chordie server. The original song is hosted at www.xguitar.com. Chordie works as a search engine and provides on-the-fly formatting. Chordie does not index songs against artists/composers will. To remove this song please click here.

This song is displayed as text-only. Transposing and tuning is only available for chordpro-songs.

Login - add to songbook

Rating click stars to rate

Layout
Accuracy

SHARE PAGE  




You need to log in to post comments