Jacqueline

Franz Ferdinand

 4/45/4
  Gtr I                    
W +W W +Q W +Q W +Q
|-^3--------:-(3)--------:-^4--------(4)--:-^6--------(6)--:----------------|
|-^4--------:-(4)--------:-^4--------(4)--:-^6--------(6)--:-^6--------(6)--|
|-^5--------:-(5)--------:-^5--------(5)--:-^7--------(7)--:-^7--------(7)--|
|-^5--------:-(5)--------:-^6--------(6)--:-^8--------(8)--:-^8--------(8)--|
|-^3--------:-(3)--------:-^6--------(6)--:-^8--------(8)--:-^8--------(8)--|
|-----------:------------:-^4--------(4)--:-^6--------(6)--:-^6--------(6)--|


 CmAbBb
   W        +Q      W        +Q      W        +Q      H..        Q   E
|-^3--------(3)--:-^4--------(4)--:-^6--------(6)--:------------^6\----|
|-^4--------(4)--:-^4--------(4)--:-^6--------(6)--:-^6---------^6\----|
|-^5--------(5)--:-^5--------(5)--:-^7--------(7)--:-^7---------^7\--x-|
|-^5--------(5)--:-^6--------(6)--:-^8--------(8)--:-^8---------^8\--x-|
|-^3--------(3)--:-^6--------(6)--:-^8--------(8)--:-^8---------^8\--x-|
|----------------:-^4--------(4)--:-^6--------(6)--:-^6---------^6\--x-|


 4/4
   W          +W            W          +W            W
|-^3--------:-(3)--------:-^3--------:-(3)--------:-^4----|
|-^3--------:-(3)--------:-^4--------:-(4)--------:-^4----|
|-^4--------:-(4)--------:-^5--------:-(5)--------:-^5----|
|-^5--------:-(5)--------:-^5--------:-(5)--------:-^6----|
|-^5--------:-(5)--------:-^3--------:-(3)--------:-^6----|
|-^3--------:-(3)--------:-----------:------------:-^4----|


 5/44/4
   W        +Q      W
|-^6--------(6)--:-^3----|
|-^6--------(6)--:-^4----|
|-^7--------(7)--:-^5----|
|-^8--------(8)--:-^5----|
|-^8--------(8)--:-^3----|
|-^6--------(6)--:-------|


Intro 2
Q=145
N.C.
 4/4
  Gtr II
               PM----------|

Wx2 E E E E E E E E E E E E E E E E
|------------|-----------------|-----------------|
|------------|-----------------|-----------------|
|------------|-----------------|-----------------|
|------------|-----------------|-----------------|
|------------|-3-3-3-3-3-3-3-3-|-3-3-3-3-3-3-3-3-|
|------------|-----------------|-----------------|


N.C.
 EEEEEEEEEEEEEEEEEEEEEEEEEEEEEEEE
|-----------------|-----------------|-----------------|------------------|
|-----------------|-----------------|-----------------|------------------|
|-------0-0-0-5-5-|-8-8-8-5-5-5-0-0-|-------0-0-0-5-5-|-8-8-8-5-5-5-0-0--|
|-----------------|-----------------|-----------------|------------------|
|-3-3-3-----------|-----------------|-3-3-3-----------|------------------|
|-----------------|-----------------|-----------------|------------------|


 Cm
    Gtr II
E E E E E q E q q E E E E
||--------------------|-----------------------|
||o-------------------|-----------------------|
||--------------------|-------------5-3-------|
||------5-----5-------|--5------5-------5-5---|
||o-3-3---3-3-----3---|-----------------------|
||--------------------|-----------------------|

|
| Gtr III
| E E E E E E E E +E +E E E E E E E
||--------------------|-----------------------|
||o-x-x-8-x-8-----6b8-|-(6)-(6)-8-x-8-----6b8-|
||------------8-------|---------------8-------|
||--------------------|-----------------------|
||o-------------------|-----------------------|
||--------------------|-----------------------|


 Cm
   E   E  E E E q   E    q    q   E E E E
|---------------------|--------------------||
|---------------------|-------------------o||
|---------------------|-----------5-3------||
|---------5-----5-----|--5----5-------5-5--||
|--3---3----3-3-----3-|-------------------o||
|---------------------|--------------------||

|
| +E +E E E E E E E +E E E E E E E E
|---------------------|--------------------||
|-(6)-(6)-8-x-8-----6-|-(6)-6-6-6---------o||
|---------------8-----|-----------8-8-7-7--||
|---------------------|--------------------||
|---------------------|-------------------o||
|---------------------|--------------------||


Gtrs II, III
 EEEEEEEEEEEEEEEEEEEEEEEEEEEEEEEE
|-----------------|-----------------|-----------------|------------------|
|-----------------|-----------------|-----------------|------------------|
|-----------------|-----------------|-----------------|------------------|
|-----------------|---3-5-6-5-3-----|-----------------|---3-5-6-5-3------|
|-3-3-3-6-3-3-3-5-|-6-----------6-5-|-3-3-3-6-3-3-3-5-|-6-----------6-5--|
|-----------------|-----------------|-----------------|------------------|


E E E Q Q E E E E E E E E E E E E E E E E E E E E E E E E E
|---------------|-----------------|-----------------|------------------|
|---------------|-----------------|-----------------|------------------|
|---------------|-----------------|-----------------|------------------|
|---------------|---3-5-6-5-3-----|-----------------|---3-5-6-5-3------|
|-3-3-3-6--3--5-|-6-----------6-5-|-3-3-3-6-3-3-3-5-|-6-----------6-5--|
|---------------|-----------------|-----------------|------------------|


Verse
$ To Coda
 EbDmEbDm
    Gtr II                                                         
E E E E E E E E E E E E E E E E E E E E E E E E E E E E E E Q 4x
||------------------|-----------------|-----------------|--------------------||
||o-----------------|-----------------|-----------------|-------------------o||
||------------------|-----------------|-----------------|---------5-3--------||
||------5-----5-----|-5---5-5-----5-5-|-----5-----5-----|-5---5-5-----5------||
||o-3-3---3-3---3-3-|---3-----3-3-----|-3-3---3-3---3-3-|---3---------------o||
||------------------|-----------------|-----------------|--------------------||

|
| Gtr III
| E E E E E E E E E E E E E E E E E E E E E E E E E E E E E E E E 4x
||--3-x-3-x-x-3-x-x-|-3-x-3-x-1-1-1-1-|-3-x-3-x-x-3-x-x-|-3-x-3-x-1-1-1-1----||
||o-4-x-4-x-x-4-x-x-|-4-x-4-x-3-3-3-3-|-4-x-4-x-x-4-x-x-|-4-x-4-x-3-3-3-3---o||
||------------------|-----------------|-----------------|--------------------||
||------------------|-----------------|-----------------|--------------------||
||o-----------------|-----------------|-----------------|-------------------o||
||------------------|-----------------|-----------------|--------------------||


Pre-Chorus
 EEEEEEEEEEEEEEEEEEEEEEEEEEEEEEEE
|------------------|-------------------|------------------|--------------------|
|------------------|-------------------|------------------|--------------------|
|------------------|-------------------|------------------|--------------------|
|------3-5-----3-5-|-------3-5-----3-5-|------------------|--------------------|
|--3-3-----3-3-----|--3--3-----3-3-----|------5-6-----5-6-|-------5-6-----5-6--|
|------------------|-------------------|--4-4-----4-4-----|--4--4-----4-4------|

|
| W +W W +W
|-^3---------------|-(3)---------------|------------------|--------------------|
|-^4---------------|-(4)---------------|-^4---------------|-(4)----------------|
|-^5---------------|-(5)---------------|-^5---------------|-(5)----------------|
|-^5---------------|-(5)---------------|-^6---------------|-(6)----------------|
|-^3---------------|-(3)---------------|-^6---------------|-(6)----------------|
|------------------|-------------------|-^4---------------|-(4)----------------|


 EEEEEEEEEEEEEEEE
|-------------------|-------------------|
|-------------------|-------------------|
|-------------------|-------------------|
|-------------------|-------------------|
|-------6-8-----6-8-|-------6-8-----6-8-|
|--6--6-----6-6-----|--6--6-----6-6-----|

|
| H. E E +E E E Q E E E
|-^6----------------|-------------------|
|-^6----------------|-----6-------6-----|
|-^7--------------7-|-(7)-----7-------7-|
|-^8----------------|-------------------|
|-^8------------8---|-------8-------8---|
|-^6----------------|-------------------|


 EEEEEEEEEEEEEEEE
|-------------------|--------------------|
|-------------------|--------------------|
|-------------------|--------------------|
|-------------------|--------------------|
|-------6-8-----6-8-|-------6-8-----6-8--|
|--6--6-----6-6-----|--6--6-----6-6------|

|
| +E E E Q E E E +E E E Q E E E
|---------6-------6-|-(6)-----6-------6--|
|-------------6-----|-----6-------6------|
|-(7)---7-----------|--------------------|
|---------------8---|-------8-------8----|
|-----8-------------|--------------------|
|-------------------|--------------------|


 EEEEEEEEEEEEEEEEEEEEEEEEEEEEEEEE
|------------------|-------------------|------------------|------------------|
|------------------|-------------------|------------------|------------------|
|------------------|-------------------|------------------|------------------|
|------3-5-----3-5-|-------3-5-----3-5-|------------------|------------------|
|--3-3-----3-3-----|--3--3-----3-3-----|------5-6-----5-6-|-----5-6-----5-6--|
|------------------|-------------------|--4-4-----4-4-----|-4-4-----4-4------|

|
| W +W W E Q E E E E E
|-^3---------------|-(3)---------------|------------------|------------------|
|-^4---------------|-(4)---------------|-^4---------------|---4-----4---5----|
|-^5---------------|-(5)---------------|-^5---------------|-------5---5---4--|
|-^5---------------|-(5)---------------|-^6---------------|-6----------------|
|-^3---------------|-(3)---------------|-^6---------------|------------------|
|------------------|-------------------|-^4---------------|------------------|


 EEEEEEEEEEEEEEEE
|-------------------|-------------------|
|-------------------|-------------------|
|-------------------|-------------------|
|-------------------|-------------------|
|-------6-8-----6-8-|-------6-8-----6-8-|
|--6--6-----6-6-----|--6--6-----6-6-----|

|
| H. E E +E E E Q Q E
|-^6----------------|-------------------|
|-^6----------------|-----6-------6---6-|
|-^7--------------7-|-(7)-----7---------|
|-^8----------------|-------------------|
|-^8------------8---|-------8-----------|
|-^6----------------|-------------------|


 EEEEEEEEEEEEEEEE
|-------------------|--------------------|
|-------------------|--------------------|
|-------------------|--------------------|
|-------------------|--------------------|
|-------6-8-----6-8-|-------6-8-----6-8--|
|--6--6-----6-6-----|--6--6-----6-6------|

|
| +E Q E Q Q +E E E Q Q E
|-------------------|--------------------|
|-(6)-------6-------|-----6-------6---6--|
|-----7---------7---|-(7)-----7----------|
|-------------------|--------------------|
|---------8---------|-------8------------|
|-------------------|--------------------|


Chorus
 EEEEEEEEEEEEEEEEEEEEEEEEEEEEEEEE
|------------------|-------------------|-------------------|------------------|
|------------------|-------------------|-------------------|------------------|
|------------------|-------------------|-------------------|------------------|
|------------------|-------------------|-------------------|-----3-5-----3-5--|
|------------------|-------------------|-------------------|-3-3-----3-3------|
|--3-3-3-3-3-3-3-3-|--3--3-3-3-3-3-3-3-|--3--3-3-3-3-3-3-3-|------------------|

|
| W +W +W Q E Q E E E
|-^3---------------|-(3)---------------|-(3)---------------|-3---3-3---3-3-3--|
|-^3---------------|-(3)---------------|-(3)---------------|-4---4-4---4-4-4--|
|-^4---------------|-(4)---------------|-(4)---------------|-5---5-5---5-5-5--|
|-^5---------------|-(5)---------------|-(5)---------------|-5---5-5---5-5-5--|
|-^5---------------|-(5)---------------|-(5)---------------|-3---3-3---3-3-3--|
|-^3---------------|-(3)---------------|-(3)---------------|------------------|


 EEEEEEEEEEEEEEEEEEEEEEEE
|-----------------|-----------------|-----------------|
|-----------------|-----------------|-----------------|
|-----------------|-----------------|-----------------|
|-----3-5-----3-5-|-----------------|-----------------|
|-3-3-----3-3-----|-----5-6-----5-6-|-----6-8-----6-8-|
|-----------------|-4-4-----4-4-----|-6-6-----6-6-----|

|
| Q E Q E E E Q E Q E E E Q E Q E E E
|-3---3-3---3-3-3-|-----------------|-----------------|
|-4---4-4---4-4-4-|-4---4-4---4-4-4-|-6---6-6---6-6-6-|
|-5---5-5---5-5-5-|-5---5-5---5-5-5-|-7---7-7---7-7-7-|
|-5---5-5---5-5-5-|-6---6-6---6-6-6-|-8---8-8---8-8-8-|
|-3---3-3---3-3-3-|-6---6-6---6-6-6-|-8---8-8---8-8-8-|
|-----------------|-4---4-4---4-4-4-|-6---6-6---6-6-6-|


Pre-Verse
 Cm
  E E E E E q   E      q      q   E E E E
|-------------------|-----------------------|
|-------------------|-----------------------|
|-------------------|-------------5-3-------|
|-----5-----5-------|--5------5-------5-5---|
|-3-3---3-3-----3---|-----------------------|
|-------------------|-----------------------|

|
| E E E E E E E E +E +E E E E E E E
|-------------------|-----------------------|
|-x-x-8-x-8-----6b8-|-(6)-(6)-8-x-8-----6b8-|
|-----------8-------|---------------8-------|
|-------------------|-----------------------|
|-------------------|-----------------------|
|-------------------|-----------------------|


D.S. al Coda
 Cm
   E   E  E E E q   E    q    q   E E E E
|---------------------|--------------------|
|---------------------|--------------------|
|---------------------|-----------5-3------|
|---------5-----5-----|--5----5-------5-5--|
|--3---3----3-3-----3-|--------------------|
|---------------------|--------------------|

|
| +E +E E E E E E E +E E E E E E E E
|---------------------|--------------------|
|-(6)-(6)-8-x-8-----6-|-(6)-6-6-6----------|
|---------------8-----|-----------8-8-7-7--|
|---------------------|--------------------|
|---------------------|--------------------|
|---------------------|--------------------|


Post Verse
&
 FGAbBb
  H       +Q.     S S   Q.     S S Q   Q
|---------------------|--------------------|
|---------------------|--------------------|
|---------------------|--------------------|
|-3-------(3)-----5-5-|-5------6-6-6---8---|
|-x-------(x)-----x-x-|-x------x-x-x---x---|
|-1-------(1)-----3-3-|-3------4-4-4---6---|

|
| PM-------------------------------------|

| E E E E E E E E E E E E E E E E
|---------------------|--------------------|
|---------------------|--------------------|
|---------------------|--------------------|
|-3-3-3-3--3--3-3-3---|-5--5-5-5---6-6-8-8-|
|---------------------|--------------------|
|---------------------|--------------------|


Bridge
N.C.
Gtr II
 EEEEEEEEEEEEEEEEEEEEEEEEEEEEEEEE
||------------------|-----------------|-----------------|------------------||
||o-----------------|-----------------|-----------------|-----------------o||
||--------0-0-0-5-5-|-8-8-8-5-5-5-0-0-|-------0-0-0-5-5-|-8-8-8-5-5-5-0-0--||
||------------------|-----------------|-----------------|------------------||
||o-3-3-3-----------|-----------------|-3-3-3-----------|-----------------o||
||------------------|-----------------|-----------------|------------------||


 EbDmEbDm
    Gtr II                                                         
W H E E E E W H E E E E
||------------------|-----------------|-----------------|------------------||
||o-----------------|-----------------|-----------------|-----------------o||
||------------------|-----------------|-----------------|------------------||
||------------------|---------3-3-3-3-|-----------------|---------3-3-3-3--||
||o-----------------|---------1-1-1-1-|-----------------|---------1-1-1-1-o||
||------------------|-----------------|-----------------|------------------||

|
| Gtr III
| E E E E E E E E E E E E E E E E E E E E E E E E E E E E E E E E
||--3-x-3-x-x-3-x-x-|-3-x-3-x-1-1-1-1-|-3-x-3-x-x-3-x-x-|-3-x-3-x-1-1-1-1--||
||o-4-x-4-x-x-4-x-x-|-4-x-4-x-3-3-3-3-|-4-x-4-x-x-4-x-x-|-4-x-4-x-3-3-3-3-o||
||------------------|-----------------|-----------------|------------------||
||------------------|-----------------|-----------------|------------------||
||o-----------------|-----------------|-----------------|-----------------o||
||------------------|-----------------|-----------------|------------------||


Outro
 EEEEEEEEEEEEEEEE
||------------------|-----------------|
||o-----------------|-----------------|
||------------------|-----------------|
||------5-----5-----|-5---5-5-----5-5-|
||o-3-3---3-3---3-3-|---3-----3-3-----|
||------------------|-----------------|

|
| E E E E E E E E E E E E E E E E
||--3-x-3-x-x-3-x-x-|-3-x-3-x-1-1-1-1-|
||o-4-x-4-x-x-4-x-x-|-4-x-4-x-3-3-3-3-|
||------------------|-----------------|
||------------------|-----------------|
||o-----------------|-----------------|
||------------------|-----------------|


 EbDmEb
  E E E E E E E E   E E E E E E Q    4x E Q.   H
|-----------------|------------------||-------------*|
|-----------------|-----------------o||-------------*|
|-----------------|---------5-3------||-------------*|
|-----5-----5-----|-5---5-5-----5----||-------------*|
|-3-3---3-3---3-3-|---3-------------o||-3-----------*|
|-----------------|------------------||-------------*|

|
| E E E E E E E E E E E E E E E E 4x E Q. H
|-3-x-3-x-x-3-x-x-|-3-x-3-x-1-1-1-1--||-3-----------*|
|-4-x-4-x-x-4-x-x-|-4-x-4-x-3-3-3-3-o||-4-----------*|
|-----------------|------------------||-------------*|
|-----------------|------------------||-------------*|
|-----------------|-----------------o||-------------*|
|-----------------|------------------||-------------*|


Duration Legend
---------------
W - whole; H - half; Q - quarter; E - 8th; S - 16th; T - 32nd; X - 64th; a - acciaccatura

+ - note tied to previous; . - note dotted; .. - note double dotted
Uncapitalized letters represent notes that are staccato (1/2 duration)
Irregular groupings are notated above the duration line
Duration letters will always appear directly above the note/fret number it represents the
duration for. Duration letters with no fret number below them represent rests. Multi-
bar rests are notated in the form Wxn, where n is the number of bars to rest for. Low
melody durations appear below the staff

Tablature Legend
----------------

h - hammer-on
p - pull-off
b - bend
pb - pre-bend
r - bend release (if no number after the r, then release immediately)
/\ - slide into or out of (from/to "nowhere")
s - legato slide
S - shift slide
- natural harmonic
(n) - artificial harmonic
n(n) - tapped harmonic
~ - vibrato
tr - trill
T - tap
TP - trem. picking
PM - palm muting
\n/ - tremolo bar dip; n = amount to dip
\n - tremolo bar down
n/ - tremolo bar up
/n\ - tremolo bar inverted dip
= - hold bend; also acts as connecting device for hammers/pulls
<> - volume swell (louder/softer)
x - on rhythm slash represents muted slash
o - on rhythm slash represents single note slash

Misc Legend
-----------

| - bar
|| - double bar
||o - repeat start
o|| - repeat end
*| - double bar (ending)
: - bar (freetime)
$ - Segno
& - Coda
Tempo markers - = BPM(8/16=s8/s16), where s8 = swing 8ths, s16 = swing 16ths

***************************************************************************************
* Generated using Power Tab Editor by Brad Larsen - http://powertab.guitarnetwork.org *
***************************************************************************************


Ab Bb Cm Dm E Eb F G
variations - click chord images
Transpose chords:
Tuning:
Cool service:
View: Size:
A  A  A
Rating:
Layout:
  • Currently 3/5 Stars.
  • 1
  • 2
  • 3
  • 4
  • 5
 
Accuracy:
  • Currently 3/5 Stars.
  • 1
  • 2
  • 3
  • 4
  • 5
 
click stars to rate
Chordie recommends:
Check out these online guitar lessons
Songbook:
Login to add this song to your songbook
Support the artist
Preview/buy this song
MSN Music
Why this non-profit ad?

 
login to add comments/video/corrections