Michael

Franz Ferdinand

 4/4
  Gtr I
|-----------------|-----------------|-----------------|------------------|
|-----------------|-----------------|-----------------|------------------|
|-----------------|-----------------|-----------------|------------------|
|-4-4-4-6-6-6-7-7-|-4-4-4-6-6-6-7-7-|-------2-2-2-----|------------------|
|-----------------|-----------------|-4-4-4-------4-4-|-4-4-4-4-4-4-2-0--|
|-----------------|-----------------|-----------------|------------------|


N.C.
|-----------------|-----------------|-----------------|------------------|
|-----------------|-----------------|-----------------|------------------|
|-----------------|-----------------|-----------------|------------------|
|-4-4-4-6-6-6-7-7-|-4-4-4-6-6-6-7-7-|-2-2-2-1-1-1-----|------------------|
|-----------------|-----------------|-------------4-4-|-4-4-4-4-4-4-2-0--|
|-----------------|-----------------|-----------------|------------------|


N.C.
|-----------------|-----------------|
|-----------------|-----------------|
|-----------------|-6-6-----------9-|
|-4-4-4-6-6-6-7-7-|-----4-4-6-7-0---|
|-----------------|-----------------|
|-----------------|-----------------|

|
| Gtr II
|-----------------|-----------------|
|-----------------|-----------------|
|-----------------|-----------------|
|-----------------|-----------------|
|-----------------|-----------------|
|-----------------|-----------------|


 E5
|-------------------|---------------------------||
|-------------------|---------------------------||
|-(9)-9-9-9-8-6S=11-|-(11)-11-11-11-11-11-11\---||
|-------------------|---------------------------||
|-------------------|---------------------------||
|-------------------|---------------------------||

|
| <
|-------------------|---------------------------||
|-------------------|---------------------------||
|-------------------|---------------------------||
|-------------------|----------------------2----||
|-------------------|----------------------2----||
|-------------------|----------------------0----||


Pre-Verse
 F#m/AG#/CE/AbF#m/AE/Ab
||------------------|-----------------|-----------------|------------------||
||o-----------------|-----------------|-----------------|-----------------o||
||------------------|-----------------|-----------------|------------------||
||------------------|-----------------|-----------------|------------------||
||o-----------------|-----------------|-----------------|-----------------o||
||--2-2-2-2-2-2-2-2-|-4-4-4-4-4-4-4-4-|-0-0-0-0-0-0-0-0-|-2-2-2-2-2-2-0-0--||

|
||------2-------2---|-----4-------4---|-----0-------0---|-----2-----0---0--||
||o-----2-------2---|-----4-------4---|-----0-------0---|-----2-----0---0-o||
||------2-------2---|-----5-------5---|-----1-------1---|-----2-----1---1--||
||------------------|-----------------|-----------------|------------------||
||o-----------------|-----------------|-----------------|-----------------o||
||------------------|-----------------|-----------------|------------------||


Verse
 F#m/AG#/CE/AbF#m/E/Ab
                                                     3x
||------------|-----------|-----------|--------------||
||o-----------|-----------|-----------|-------------o||
||------------|-----------|-----------|-------1-1-1--||
||------------|-----------|-----------|-------2-2-2--||
||o-----------|-----------|-----------|-------2-2-2-o||
||------------|-----------|-----------|-------0-0-0--||

|
| 3x
||----2----2--|---4----4--|---0----0--|---2---0---0--||
||o---2----2--|---4----4--|---0----0--|---2---0---0-o||
||----2----2--|---5----5--|---1----1--|---2---1---1--||
||------------|-----------|-----------|--------------||
||o-----------|-----------|-----------|-------------o||
||------------|-----------|-----------|--------------||


 F#m/AG#/CE/Ab
|-----------------|-----------------|-----------------|
|-----------------|-----------------|-----------------|
|-----------------|-----------------|-----------------|
|-----------------|-----------------|-----------------|
|-----------------|-----------------|-----------------|
|-2-2-2-2-2-2-2-2-|-4-4-4-4-4-4-4-4-|-0-0-0-0-0-0-0-0-|

|
|-----2-------2---|-----4-------4---|-----0-----0---0-|
|-----2-------2---|-----4-------4---|-----0-----0---0-|
|-----2-------2---|-----5-------5---|-----1-----1---1-|
|-----------------|-----------------|-----------------|
|-----------------|-----------------|-----------------|
|-----------------|-----------------|-----------------|
|-------------------|--------------------||
|-------------------|--------------------||
|-------------------|--------------------||
|-------------------|--------------------||
|-------------------|--------------------||
|--0--0-0-0-0-0-0-0-|--0--0-0-0-0-0-0-0--||

|
|-(0)-0-------0---0-|-(0)-0-------0---0--||
|-(0)-0-------0---0-|-(0)-0-------0---0--||
|-(1)-1-------1---1-|-(1)-1-------1---1--||
|-------------------|--------------------||
|-------------------|--------------------||
|-------------------|--------------------||


Chorus
 C#5E5
||--------------------------------|-------------------------------|
||o-------------------------------|-------------------------------|
||------10b11==(10)r---(10)-------|-----10b11==(10)r---(10)-------|
||--------------------------------|-------------------------------|
||o-------------------------------|-------------------------------|
||--------------------------------|-------------------------------|

|
||--------------------------------|-------------------------------|
||o-------------------------------|-------------------------------|
||--6-6----------6---6---6--6-6-6-|-------------------------------|
||--6-6----------6---6---6--6-6-6-|-2-2----------2---2---2--2-2-2-|
||o-4-4----------4---4---4--4-4-4-|-2-2----------2---2---2--2-2-2-|
||--------------------------------|-0-0----------0---0---0--0-0-0-|


 F#5
                                           3x
|-----------------|------------------------||
|-----------------|-----------------------o||
|-----------------|------------------------||
|-----------------|-9b10.5==9-9-9-9-9-9r9--||
|---------9-----0-|-----------------------o||
|-----------------|------------------------||

|
| 3x
|-----------------|------------------------||
|-----------------|-----------------------o||
|-----------------|------------------------||
|-4-4-4-4-4-4-4-4-|-4-------4-4-4-4-4-4-4--||
|-4-4-4-4-4-4-4-4-|-4-------4-4-4-4-4-4-4-o||
|-2-2-2-2-2-2-2-2-|-2-------2-2-2-2-2-2-2--||


 C#5
|-------------------------------|
|-------------------------------|
|-----10b11==(10)r---(10)-------|
|-------------------------------|
|-------------------------------|
|-------------------------------|

|
|-------------------------------|
|-------------------------------|
|-6-6----------6---6---6--6-6-6-|
|-6-6----------6---6---6--6-6-6-|
|-4-4----------4---4---4--4-4-4-|
|-------------------------------|


 E5F5
|-------------------------------|--------------------|--------||
|-------------------------------|--------------------|--------||
|-----10b11==(10)r---(10)-------|--------------------|--------||
|-------------------------------|-0-9b10--(9)--(9)---|-(9)----||
|-------------------------------|--------------------|--------||
|-------------------------------|--------------------|--------||

|
|-------------------------------|--------------------|--------||
|-------------------------------|--------------------|--------||
|-------------------------------|--------------------|--------||
|-2-2----------2---2---2--2-2-2-|-3------------------|-(3)----||
|-2-2----------2---2---2--2-2-2-|-3------------------|-(3)----||
|-0-0----------0---0---0--0-0-0-|-1------------------|-(1)----||


Interlude
 F#m/AG#/CE/AbF#m/AE/Ab
|-----------------|-----------------|-----------------|------------------|
|-----------------|-----------------|-----------------|------------------|
|-----------------|-----------------|-----------------|------------------|
|-4-4-4-6-6-6-7-7-|-4-4-4-6-6-6-7-7-|-------2-2-2-----|------------------|
|-----------------|-----------------|-4-4-4-------4-4-|-4-4-4-4-4-4-2-0--|
|-----------------|-----------------|-----------------|------------------|

|
|-----2-------2---|-----4-------4---|-----0-------0---|-----2-----0---0--|
|-----2-------2---|-----4-------4---|-----0-------0---|-----2-----0---0--|
|-----2-------2---|-----5-------5---|-----1-------1---|-----2-----1---1--|
|-----------------|-----------------|-----------------|------------------|
|-----------------|-----------------|-----------------|------------------|
|-----------------|-----------------|-----------------|------------------|


 F#m/AG#/CE/AbF#m/AE/Ab
|-----------------|-----------------|-----------------|------------------|
|-----------------|-----------------|-----------------|------------------|
|-----------------|-----------------|-----------------|------------------|
|-4-4-4-6-6-6-7-7-|-4-4-4-6-6-6-7-7-|-2-2-2-1-1-1-----|------------------|
|-----------------|-----------------|-------------4-4-|-4-4-4-4-4-4-2-0--|
|-----------------|-----------------|-----------------|------------------|

|
|-----2-------2---|-----4-------4---|-----0-------0---|-----2-----0---0--|
|-----2-------2---|-----4-------4---|-----0-------0---|-----2-----0---0--|
|-----2-------2---|-----5-------5---|-----1-------1---|-----2-----1---1--|
|-----------------|-----------------|-----------------|------------------|
|-----------------|-----------------|-----------------|------------------|
|-----------------|-----------------|-----------------|------------------|


 F#m/AG#/CE/AbF#m/AE/Ab
|-----------------|-----------------|-----------------|------------------||
|-----------------|-----------------|-----------------|------------------||
|-----------------|-----------------|-----------------|------------------||
|-----------------|-----------------|-----------------|------------------||
|-----------------|-----------------|-----------------|------------------||
|-2-2-2-2-2-2-2-2-|-4-4-4-4-4-4-4-4-|-0-0-0-0-0-0-0-0-|-2-2-2-2-2-2-0-0--||

|
|-----2-------2---|-----4-------4---|-----0-------0---|-----2-----0---0--||
|-----2-------2---|-----4-------4---|-----0-------0---|-----2-----0---0--||
|-----2-------2---|-----5-------5---|-----1-------1---|-----2-----1---1--||
|-----------------|-----------------|-----------------|------------------||
|-----------------|-----------------|-----------------|------------------||
|-----------------|-----------------|-----------------|------------------||


Verse 2
N.C. E
||----------|---------|---------|-------------||
||o---------|---------|---------|------------o||
||----------|---------|---------|------1-1-1--||
||----------|---------|---------|------2-2-2--||
||o---------|---------|---------|------2-2-2-o||
||----------|---------|---------|------0-0-0--||


 F#m/AG#/CE/AbF#m/A
|-----------|-----------|-----------|--------------|
|-----------|-----------|-----------|--------------|
|-----------|-----------|-----------|-------1-1-1--|
|-----------|-----------|-----------|-------2-2-2--|
|-----------|-----------|-----------|-------2-2-2--|
|-----------|-----------|-----------|-------0-0-0--|

|
| Gtr II
|---2----2--|---4----4--|---0----0--|---2---0---0--|
|---2----2--|---4----4--|---0----0--|---2---0---0--|
|---2----2--|---5----5--|---1----1--|---2---1---1--|
|-----------|-----------|-----------|--------------|
|-----------|-----------|-----------|--------------|
|-----------|-----------|-----------|--------------|


 F#m/AG#/CE/Ab
|-----------------|-----------------|-----------------|
|-----------------|-----------------|-----------------|
|-----------------|-----------------|-----------------|
|-----------------|-----------------|-----------------|
|-----------------|-----------------|-----------------|
|-2-2-2-2-2-2-2-2-|-4-4-4-4-4-4-4-4-|-0-0-0-0-0-0-0-0-|

|
|-----2-------2---|-----4-------4---|-----0-----0---0-|
|-----2-------2---|-----4-------4---|-----0-----0---0-|
|-----2-------2---|-----5-------5---|-----1-----1---1-|
|-----------------|-----------------|-----------------|
|-----------------|-----------------|-----------------|
|-----------------|-----------------|-----------------|
|-------------------|--------------------||
|-------------------|--------------------||
|-------------------|--------------------||
|-------------------|--------------------||
|-------------------|--------------------||
|--0--0-0-0-0-0-0-0-|--0--0-0-0-0-0-0-0--||

|
|-(0)-0-------0---0-|-(0)-0-------0---0--||
|-(0)-0-------0---0-|-(0)-0-------0---0--||
|-(1)-1-------1---1-|-(1)-1-------1---1--||
|-------------------|--------------------||
|-------------------|--------------------||
|-------------------|--------------------||


Chorus
 C#5E5
||--------------------------------|-------------------------------|
||o-------------------------------|-------------------------------|
||------10b11==(10)r---(10)-------|-----10b11==(10)r---(10)-------|
||--------------------------------|-------------------------------|
||o-------------------------------|-------------------------------|
||--------------------------------|-------------------------------|

|
||--------------------------------|-------------------------------|
||o-------------------------------|-------------------------------|
||--6-6----------6---6---6--6-6-6-|-------------------------------|
||--6-6----------6---6---6--6-6-6-|-2-2----------2---2---2--2-2-2-|
||o-4-4----------4---4---4--4-4-4-|-2-2----------2---2---2--2-2-2-|
||--------------------------------|-0-0----------0---0---0--0-0-0-|


 F#5
                                           3x
|-----------------|------------------------||
|-----------------|-----------------------o||
|-----------------|------------------------||
|-----------------|-9b10.5==9-9-9-9-9-9r9--||
|---------9-----0-|-----------------------o||
|-----------------|------------------------||

|
| 3x
|-----------------|------------------------||
|-----------------|-----------------------o||
|-----------------|------------------------||
|-4-4-4-4-4-4-4-4-|-4-------4-4-4-4-4-4-4--||
|-4-4-4-4-4-4-4-4-|-4-------4-4-4-4-4-4-4-o||
|-2-2-2-2-2-2-2-2-|-2-------2-2-2-2-2-2-2--||


 C#5
|-------------------------------|
|-------------------------------|
|-----10b11==(10)r---(10)-------|
|-------------------------------|
|-------------------------------|
|-------------------------------|

|
|-------------------------------|
|-------------------------------|
|-6-6----------6---6---6--6-6-6-|
|-6-6----------6---6---6--6-6-6-|
|-4-4----------4---4---4--4-4-4-|
|-------------------------------|


 E5F5
|-------------------------------|--------------------|--------||
|-------------------------------|--------------------|--------||
|-----10b11==(10)r---(10)-------|--------------------|--------||
|-------------------------------|-0-9b10--(9)--(9)---|-(9)----||
|-------------------------------|--------------------|--------||
|-------------------------------|--------------------|--------||

|
|-------------------------------|--------------------|--------||
|-------------------------------|--------------------|--------||
|-------------------------------|--------------------|--------||
|-2-2----------2---2---2--2-2-2-|-3------------------|-(3)----||
|-2-2----------2---2---2--2-2-2-|-3------------------|-(3)----||
|-0-0----------0---0---0--0-0-0-|-1------------------|-(1)----||


Bridge
N.C.
|-----------------|-----------------|-----------------|------------------|
|-----------------|-----------------|-----------------|------------------|
|-----------------|-----------------|-----------------|------------------|
|-4-4-4-4-4-4-4-4-|-6-6-6-6-6-6-6-6-|-7-7-7-7-7-7-7-7-|-9-9-9-9-9-9-9-9--|
|-----------------|-----------------|-----------------|------------------|
|-----------------|-----------------|-----------------|------------------|


N.C.
||------------------|-----------------|-----------------|------------------||
||o-----------------|-----------------|-----------------|-----------------o||
||------------------|-----------------|-----------------|------------------||
||--4-4-4-4-4-4-4-4-|-6-6-6-6-6-6-6-6-|-7-7-7-7-7-7-7-7-|-9-9-9-9-9-9-9-9--||
||o-----------------|-----------------|-----------------|-----------------o||
||------------------|-----------------|-----------------|------------------||

|
| Gtr II
||------------------|-----------------|-----------------|------------------||
||o-----------------|-----------------|-----------------|-----------------o||
||--6-6-6-6-6-6-6-6-|-6-6-6-6-6-6-6-6-|-6-6-6-6-6-6-6-6-|-6-6-6-6-6-6-6-6--||
||------------------|-----------------|-----------------|------------------||
||o-----------------|-----------------|-----------------|-----------------o||
||------------------|-----------------|-----------------|------------------||


Out-Chorus
 C#5E5
||--------------------------------|-------------------------------|
||o-------------------------------|-------------------------------|
||------10b11==(10)r---(10)-------|-----10b11==(10)r---(10)-------|
||--------------------------------|-------------------------------|
||o-------------------------------|-------------------------------|
||--------------------------------|-------------------------------|

|
||--------------------------------|-------------------------------|
||o-------------------------------|-------------------------------|
||--6-6----------6---6---6--6-6-6-|-------------------------------|
||--6-6----------6---6---6--6-6-6-|-2-2----------2---2---2--2-2-2-|
||o-4-4----------4---4---4--4-4-4-|-2-2----------2---2---2--2-2-2-|
||--------------------------------|-0-0----------0---0---0--0-0-0-|


 F#5
                                           3x
|-----------------|------------------------||
|-----------------|-----------------------o||
|-----------------|------------------------||
|-----------------|-9b10.5==9-9-9-9-9-9r9--||
|---------9-----0-|-----------------------o||
|-----------------|------------------------||

|
| 3x
|-----------------|------------------------||
|-----------------|-----------------------o||
|-----------------|------------------------||
|-4-4-4-4-4-4-4-4-|-4-------4-4-4-4-4-4-4--||
|-4-4-4-4-4-4-4-4-|-4-------4-4-4-4-4-4-4-o||
|-2-2-2-2-2-2-2-2-|-2-------2-2-2-2-2-2-2--||


 C#5E5
|-------------------------------|-------------------------------|
|-------------------------------|-------------------------------|
|-----10b11==(10)r---(10)-------|-----10b11==(10)r---(10)-------|
|-------------------------------|-------------------------------|
|-------------------------------|-------------------------------|
|-------------------------------|-------------------------------|

|
|-------------------------------|-------------------------------|
|-------------------------------|-------------------------------|
|-6-6----------6---6---6--6-6-6-|-------------------------------|
|-6-6----------6---6---6--6-6-6-|-2-2----------2---2---2--2-2-2-|
|-4-4----------4---4---4--4-4-4-|-2-2----------2---2---2--2-2-2-|
|-------------------------------|-0-0----------0---0---0--0-0-0-|


 F#5
|-----------------|------------------|
|-----------------|------------------|
|-----------------|------------------|
|-----------------|------------------|
|-----------------|------------------|
|-----------------|------------------|

|
|-----------------|------------------|
|-----------------|------------------|
|-----------------|------------------|
|-4-4-4-4-4-4-4-4-|-4-4-4-4-4-4-4-4--|
|-4-4-4-4-4-4-4-4-|-4-4-4-4-4-4-4-4--|
|-2-2-2-2-2-2-2-2-|-2-2-2-2-2-2-2-2--|


 F#5C#5
|-----------------|----------|------------|--------*|
|-----------------|----------|------------|--------*|
|-----------------|-6--------|-(6)--------|-(6)----*|
|-4-4-4-4-4-4-4-4-|-6--------|-(6)--------|-(6)----*|
|-4-4-4-4-4-4-4-4-|-4--------|-(4)--------|-(4)----*|
|-2-2-2-2-2-2-2-2-|----------|------------|--------*|


Tablature Legend
----------------

h - hammer-on
p - pull-off
b - bend
pb - pre-bend
r - bend release (if no number after the r, then release immediately)
/\ - slide into or out of (from/to "nowhere")
s - legato slide
S - shift slide
- natural harmonic
(n) - artificial harmonic
n(n) - tapped harmonic
~ - vibrato
tr - trill
T - tap
TP - trem. picking
PM - palm muting
\n/ - tremolo bar dip; n = amount to dip
\n - tremolo bar down
n/ - tremolo bar up
/n\ - tremolo bar inverted dip
= - hold bend; also acts as connecting device for hammers/pulls
<> - volume swell (louder/softer)
x - on rhythm slash represents muted slash
o - on rhythm slash represents single note slash

Misc Legend
-----------

| - bar
|| - double bar
||o - repeat start
o|| - repeat end
*| - double bar (ending)
: - bar (freetime)
$ - Segno
& - Coda
Tempo markers - = BPM(8/16=s8/s16), where s8 = swing 8ths, s16 = swing 16ths

***************************************************************************************
* Generated using Power Tab Editor by Brad Larsen - http://powertab.guitarnetwork.org *
***************************************************************************************


C#5 E/Ab E5 F#5 F#m/A F5 G#/C
variations - click chord images
Transpose chords:
Tuning:
Cool service:
View: Size:
A  A  A
Rating:
Layout:
  • Currently 2.8/5 Stars.
  • 1
  • 2
  • 3
  • 4
  • 5
 
Accuracy:
  • Currently 3.2/5 Stars.
  • 1
  • 2
  • 3
  • 4
  • 5
 
click stars to rate
Chordie recommends:
Check out these online guitar lessons
Songbook:
Login to add this song to your songbook
Support the artist
Preview/buy this song
MSN Music
Why this non-profit ad?

 
login to add comments/video/corrections