Guitar Tabs, Chords and Lyrics


Alive Out of Habit    From Autumn To Ashes



From Autumn to Ashes
Alive Out of Habit
Tabbed by Kellen

p=pull off
x=muted string
~=let ring


Intro
E-------------------------------------------------------
B-------------------------------------------------------
G-------------------------------------------------------
D------12---10-----9-9h10-------12----10----9--10p9----- x4
A---10---10----10------------10----10----10-------------
E-0------------------------0----------------------------

Verse
E--------------------------------------------------------------
B--------------------------------------------------------------
G-----------12-12-----11-11---12-12-----12-12-----11-11---12-12
D-2-2-2-2----x--x-----x--x-----x--x------x--x-----x--x-----x--x x4
A-2-2-2-2---10-10-----9--9----10-10-----10-10-----9--9----10-10
E-0-0-0-0---------0-0-------0-------0-0--------0-0------0------

Guitar 2 (played second and fourth time on the verse)
E--------15------
B--12-13---------
G----------------
D---------------- x10
A----------------
E----------------

Faster Part
E---------------------------
B---------------------------
G---------------------------
D-------44-55-7777--55-44--- x4
A--7777-------------------7-
E---------------------------

Verse again

Interlude
E------------------------------------------------
B------------------------------------------------
G------------------------------------------------
D----4-5-----4-5--222-2-2-2-2-2-2-222-2-2-2-2-2-2 x4
A--7------5-------222-2-2-2-2-2-2-222-2-2-2-2-2-2
E-----------------000-0-0-0-0-0-0-000-0-0-0-0-0-0

Then
E-------------------------------------------
B-------------------------------------------
G-------------------------------------------
D--222-222-222--------------------2~--------
A--222-222-222--------------------2~--------
E--000-000-000--------------------0~--------

Then
E-----------------------------------------------
B-----------------------------------------------
G-----------------------------------------------
D------5-4-5-7-5------4-5-----4-5--------------- x5
A--7--------------7--------5--------------------
E-----------------------------------------------

Then this little riff
E-------------------------------------------
B-------------------------------------------
G-------------------------------------------
D----9--7--9--10--9-------------------------
A--7----------------------------------------
E-------------------------------------------

"shards of glass, skies of gold..."
E------------------------------------------------------------------
B------------------------------------------------------------------
G---------12-12-12-12----------12/11-9/11--9/11-11-11--9/11-11-11--
D---------x--x--x--x-----------x--x--x-x---x-x--x--x---x-x--x--x--- x4
A---------10-10-10-10----------10/9--7/9---7/9--9--9---7/9--9--9---
E-000-000--------------000-000-------------------------------------

"think of..."
E----------------------
B----------------------
G---------12-12-12-12--
D---------x--x--x--x---
A---------10-10-10-10--
E-000-000--------------

"me as..."
E----------------------
B----------------------
G---------12-12-12-12--
D---------x--x--x--x---
A---------10-10-10-10--
E-000-000--------------

"i say..."
E----------------------
B----------------------
G---------11-11-11-11--
D---------x--x--x--x---
A---------9--9--9--9---
E-000-000--------------

"goodbye"
E------------------------------------
B------------------------------------
G--------9/11-11-11--9/11-11-11------
D--------x-x--x--x---x-x--x--x-------
A--------7/9--9--9---7/9--9--9-------
E------------------------------------

"strip away..."
E----------------------
B----------------------
G---------12-12-12-12--
D---------x--x--x--x---
A---------10-10-10-10--
E-000-000--------------

"part of me..."
E----------------------
B----------------------
G---------12-12-12-12--
D---------x--x--x--x---
A---------10-10-10-10--
E-000-000--------------

"just as you..."
E----------------------
B----------------------
G---------11-11-11-11--
D---------x--x--x--x---
A---------9--9--9--9---
E-000-000--------------

"consume me..."
E------------------------------------
B------------------------------------
G--------9/11-11-11--9/11-11-11------
D--------x-x--x--x---x-x--x--x-------
A--------7/9--9--9---7/9--9--9-------
E------------------------------------
"broken smile..."
E----------------------
B----------------------
G---------12-12-12-12--
D---------x--x--x--x---
A---------10-10-10-10--
E-000-000--------------

"starless sky..."
E----------------------
B----------------------
G---------12-12-12-12--
D---------x--x--x--x---
A---------10-10-10-10--
E-000-000--------------

"end it all..."
E----------------------
B----------------------
G---------11-11-11-11--
D---------x--x--x--x---
A---------9--9--9--9---
E-000-000--------------

"say good..."
E------------------------------------
B------------------------------------
G--------9/11-11-11--9/11-11-11------
D--------x-x--x--x---x-x--x--x-------
A--------7/9--9--9---7/9--9--9-------
E------------------------------------

"bye"
E------
B------
G------
D-2~---
A-2~---
E-0~---



Important: The song above is NOT stored on the Chordie server. The original song is hosted at www.xguitar.com. Chordie works as a search engine and provides on-the-fly formatting. Chordie does not index songs against artists'/composers' will. To remove this song please click here.

This song is displayed as text-only. Transposing and tuning is only available for chordpro-songs.

Login - add to songbook

Rating click stars to rate

Layout
Accuracy

SHARE PAGE  




You need to log in to post comments