Guitar Tabs, Chords and Lyrics


Minuet    From First To Last



Tabbed By Bobby (Straylightrunfan)

I've done a few tabs here on this site before, but it's my first for From First To Last

Standard Tunning

First Part    Play 2x

E|-----------------|---------------|---------------|-----------------|
B|-----------------|---------------|---------------|-----1-----------|
G|---2-----2-----2-|-2-----2-----2-|-0-----0-----0-|-----------2/3---|
D|-----3-----3-----|---3-----3-----|---3-----3-----|---2-----2-------|
A|-5-----5-----5---|-----2-----2---|-----1-----1---|-3-----3---------|
E|-----------------|---------------|---------------|-----------------|

Second Part  Play 2x
                                               1st Time Finish On
E|-------------|-------------|-------------|---------------|
B|-------------|-------------|-----1-------|---------------|
G|-----2-----2-|-----3-----3-|-----------3-|-----3-2-0-----|
D|---3-----3---|---2-----2---|---3-----3---|---2-------3---|
A|-5-----5-----|-3-----3-----|-1-----1-----|-0-------------|
E|-------------|-------------|-------------|---------------|

                                               2nd Time Finish On
E|-------------|-------------|-------------|---------------|
B|-------------|-------------|-----1-------|---------3/5---|
G|-----2-----2-|-----3-----3-|-----------3-|-----3-2-------|
D|---3-----3---|---2-----2---|---3-----3---|---2-----------|
A|-5-----5-----|-3-----3-----|-1-----1-----|-0-------------|
E|-------------|-------------|-------------|---------------|

Third Part     Play 2x

E|-------8-----|-------10p8---|-------6-----|---------------|
B|-----6---6---|-----6------6-|-----6---6---|-----8-----6---|
G|---7-------7-|---7----------|---7-------7-|---6-----7-----|
D|-0-----------|-0------------|-8-----------|-7-----5-------|
A|-------------|--------------|-------------|---------------|
E|-------------|--------------|-------------|---------------|

Fourth Part    Play ONCE

E|-------------|-------------|-------------|---------------|
B|-------6-----|-------5-----|-------------|---------------|
G|-------------|-------------|-------5-----|-----0-----0---|
D|-----7---7---|-----5---5---|-----4---4---|---2-----2-----|
A|-8-8-------8-|-7-7-------7-|-5-5-------5-|-3-----3-------|
E|-------------|-------------|-------------|---------------|

Fifth   Play 2x

E|-------------|-------------|-------------|------------|-----------|
B|-------------|-------------|-------------|------------|-----------|
G|-------2-----|-------7-----|-------9-----|-------10---|-------5---|
D|-----3---3---|-----5---5---|-----7---7---|-----7------|-----5-----|
A|-1-1-------1-|-3-3-------3-|-5-5-------5-|---8--------|---7-------|
E|-------------|-------------|-------------|------------|-----------|

Last Part   End On Only After You Play the Fifth Part Twice

E|---------|
B|-1~~~~---|
G|-3~~~~---|
D|-3~~~~---|
A|-1~~~~---|
E|---------|




Important: The song above is NOT stored on the Chordie server. The original song is hosted at www.xguitar.com. Chordie works as a search engine and provides on-the-fly formatting. Chordie does not index songs against artists'/composers' will. To remove this song please click here.

This song is displayed as text-only. Transposing and tuning is only available for chordpro-songs.

Login - add to songbook

Rating click stars to rate

Layout
Accuracy

SHARE PAGE  




You need to log in to post comments