eToCache5 = ""; ?> Hemorrhage (In My Hands) by Fuel - guitar chords, guitar tabs and lyrics - chordie

Hemorrhage (In My Hands)

Fuel

e |---0---0---0-----------------------------------------------------|

b |---3---2---0-----------------------------------------------------|

g |---4---2---0-----------------------------------------------------|

d |---4---2---2-----------------------------------------------------|

a |---2---0---2-----------------------------------------------------|

e |-----------0-----------------------------------------------------|

 BmAEm
                 Main Verse Riff:
e |----------0---------------0---------------0--------------0-------|
b |--------3---3-----------3---3-----------3---3----------3---3-----|
g |------0-------0-------0-------0-------0-------0------0-------0---|
d |----4---------------4-----------4---4--------------4-----------4-|
a |--2-------------0-------------------------------0----------------|
e |----------------------------------3------------------------------|

Pre-Chorus (acoustic guitar):
e |---0--0----5-5-5----0--------------------------------------------|
b |---3--3----3-3-3----2--------------------------------------------|
g |---0--0----2-2-2----2--------------------------------------------|
d |---x--x----0-0-0----2--------------------------------------------|
a |---2--2-------------0--------------------------------------------|
e |---0--0----------------------------------------------------------|

 EmDA
                         Chorus (electric distorted): (no strumming shown)
e |---3----0--------------3---0---0---------------------------------|
b |---3----3---2---3------3---3---2--2------------------------------|
g |---0----2---2---2------0---2---2--2------------------------------|
d |---0----0---2---2------0---0---2--0------------------------------|
a |---x--------0---0------x-------0--x------------------------------|
e |---3-------------------3----------2------------------------------|

Bridge Part:
e |-----------------------------------------------------------------|
b |-----------------------------------------------------------------|
g |-----------------------------------------------------------------|
d |--------------------------2-4\-------4---------------------------|
a |-----0-2----2-4-5-4b5r4-5------/2-4--4---------------------------|
e |---3-----5^-----------------------2--2---------------------------|

tabbed by zipztabs.com
Enjoy!
Hemmorage Solo's
by Brian S.
tuned down 1/2 step
Solo : (2:19)
guitar w/ distortion and fast modulation effect
e-----------------------------------19-------19---------|
b--19~~~~~~~~~~~~----------19-(19)------19--------------|
g------------------16~~~~------------------------16-16--|
d-------------------------------------------------------|
a-------------------------------------------------------|
e-------------------------------------------------------|
e-------------------------19.--------19-------19--------|
b-----------------------------19--19----19-19-----19----|
g--19-19.--18--18--18-18--------------------------------|
d-------------------------------------------------------|
a-------------------------------------------------------|
e-------------------------------------------------------|
e------------------------------------------14-14--------|
b----------------17-17~~--------17-17--15~-------15-17~-|
g-16----16-14~~----------14-14--------------------------|
d----16-------------------------------------------------|
a-------------------------------------------------------|
e-------------------------------------------------------|
e--14-14--17~~--19-14-14-15-14--------------------------|
b-------------------------------------------------------|
g-------------------------------------------------------|
d-------------------------------------------------------|
a-------------------------------------------------------|
e-------------------------------------------------------|

 EmDsus2AAsus4A
  Dont fall       away, and leave me to myself.
Outro Solo : (3:22) let ring
e--------------------------------------------~~~~~~~----|
b---2h3--3--2~~~-3--3---2---(2)--------2--2--2----2-----|
g--------------------------------2--2--2--2--2--2---2---|
d-------------------------------------------------------|
a-------------------------------------------------------|
e-------------------------------------------------------|
e-------------------------------------------------------|
b---2--h3--3--2---3----2--------------------2--2--2h3---|
g--------------------2-----2--2--2--2--2--2----2--------|
d-------------------------------------------------------|
a-------------------------------------------------------|
e-------------------------------------------------------|
e-------------------------------------------------------|
b--2--2--3-3-2-2---2-----2--2-(2)----2----2-3--3--3-2-3-|
g---------------------2--2--2-(2)--2----2---------------|
d-------------------------------------------------------|
a-------------------------------------------------------|
e-------------------------------------------------------|
e-------------------|
b-2~~~~~~~~~~-------|
g(2)~~~~~~~~--------|
d(2)~~~~~~~~~-------|
a(0)~~~~~~~~~-------|
e-------------------|





















A Asus4 Bm D Dsus2 Em
variations - click chord images
Transpose chords:
Tuning:
Cool service:
View: Size:
A  A  A
Rating:
Layout:
  • Currently 4/5 Stars.
  • 1
  • 2
  • 3
  • 4
  • 5
 
Accuracy:
  • Currently 4/5 Stars.
  • 1
  • 2
  • 3
  • 4
  • 5
 
click stars to rate
Chordie recommends:
Learn how to play guitar at JamPlay.com
Songbook:
Login to add this song to your songbook
Support the artist
Preview/buy this song
MSN Music
Why this non-profit ad?

 
login to add comments/video/corrections